top separator

Home

Forum

What's New

Submit a Tab

FAQ

Links

Contact Us

Link to Us

MetalTabs.com logo

Bands

0-9

A

B

C

D

E

F

G

H

I

J

K

L

M

N

O

P

Q

R

S

T

U

V

W

X

Y

Z

Search

What

Where
 

Mortifera (FR) - "Le Revenant" Guitar Tab

Plain Text Version
More Mortifera (FR) Tabs

Hits: 3647
Rated: 2.40 out of 5 (5 votes)
Updated: 2006-11-06 05:55:11

 

By:

Mortifera

sendpm.gif

email.gif

Important note
We did our best to reach Mortifera (FR) and ask for their permission to publish this tab. Unfortunately they did not respond to our requests or we could not find a way to contact them. This tab is available online until Mortifera (FR) tells us to take it down.


#----------------------------------PLEASE NOTE---------------------------------#
#This file is the author's own work and represents their interpretation of the #
#song. You may only use this file for private study, scholarship, or research. #
#Unless specified otherwise, this is NOT an official tab from the band members.#
#------------------------------------------------------------------------------#

  Visit MetalTabs.com for more metal tablature
  
Band:  Mortifera
Album: Vastiia Tenebrd Mortifera
Song:  Le revenant

Copyright (c) Drakkar 2004

Transcribed By: (Mortifera)
Email:          (Blood.and.iron@hotmail.com)


.  - palm mute           /  - slide up to
\  - slide down to       ~  - vibrato
h  - hammer on           b  - Bend
p  - pull off            Suffixes for bend
t  - tap                 f  - full bend    h - half bend
ph - pinched harmonic    q  - quarter bend t - tap bend
*  - see comment         ^  - Hold bend    r release bend
x  - Stuccatto           ~  - vibrato bend
,  - slight palm mute    () - ghost note, sustained note
"  - tremolo note        <> - Trill

Tuning E A D G B E
*NOTE: THE TIMING IS OFF ON THIS BECAUSE IT WOULD BE RIDICULOUS
TO TIME IT FOR ME AND I DON'T WANNA SPEND HOURS DOING THAT SO
JUST LISTEN TO THE SONG!*

Riff 1:
Guitar 1:
|-------------------------------------------------------------------|
|-------------------------------------------------------------------|Tremolo
|-------------------------------------------------------------------|x6
|-8-8-8-8-8-9-9-9-9-6-6-6-6-6-6-8-8-8-8-8-9-9-9-9-6-6-6-6-6-6-------|Wholeriff
|-7-7-7-7-7-7-7-7-7-6-6-6-6-6-6-7-7-7-7-7-7-7-7-7-6-6-6-6-6-6-------|
|-------------------------------------------------------------------|

Guitar 2:
|-------------------------------------------------------------------|
|-------------------------------------------------------------------|Tremolo
|-------------------------------------------------------------------|Wholeriff
|-------------------------------------------------------------------|x6
|-------------------------------------------------------------------|
|-12-13-12-13-12-13-10-10-10-10-12-13-12-13-12-13-10-10-10-15-15----|
|--hammeron/off---|            |---hammeron/off--|
Riff 2:
Guitar 1:
|-------------------------------------------------------------------|
|-------------------------------------------------------------------|Tremolo
|-------------------------------------------------------------------|x6
|-------------------------------------------------------------------|Wholeriff
|-5-5-5-5-5-6-6-6-3-3-3-2-2-5-5-5-5-5-6-6-6-3-3-3-2-2---------------|
|-4-4-4-4-4-4-4-4-3-3-3-3-3-4-4-4-4-4-4-4-4-3-3-3-3-3---------------|

Guitar 2 (starts on the 3x of guitar 1's riff being played):
|-------------------------------------------------------------------|
|-------------------------------------------------------------------|Tremolo
|-------------------------------------------------------------------|Wholeriff
|-------------------------------------------------------------------|x3
|-------------------------------------------------------------------|
|-11-11-12-12-9-9-8-8-11-11-12-12-9-9-8-8-11-11-12-12-9-9-8-8-------|

Riff 3 (Acoustic part):

|-------------------------------------------------------------------|
|-------------------------------------------------------------------|
|-----1-------1-------1-------2-----1-------1-------1-------4-------|
|---2---2---2---2---2---2---2-----2---2---2---2---2---2---2---------|x2
|-4-------4-------0-------2-----4-------4-------0-------2-----------|
|-------------------------------------------------------------------|

Riff 4:

|-------------------------------------------------------------------|
|-------------------------------------------------------------------|Tremolo
|-1-1-1-1-2-2-2-2-1-1-1-1-1-3-3-3-1-1-1-1-2-2-2-2-3-3-3-------------|wholeriff
|-2-2-2-2-2-2-2-2-2-2-2-2-2-3-3-3-2-2-2-2-2-2-2-2-3-3-3-------------|x2
|-------------------------------------------------------------------|
|-------------------------------------------------------------------|

Riff 5 (Acoustic part, but with distortion this time):
|-------------------------------------------------------------------|
|-------------------------------------------------------------------|
|-----1-------1-------1-------2-----1-------1-------1-------4-------|
|---2---2---2---2---2---2---2-----2---2---2---2---2---2---2---------|x2
|-4-------4-------0-------2-----4-------4-------0-------2-----------|
|-------------------------------------------------------------------|

END

  Visit MetalTabs.com for more metal tablature

bottom separator

Contact Us | Privacy Policy | Disclaimer | Legal Notice
Copyright © 2001-2014 MetalTabs.com. All Rights Reserved.