top separator

Home

Forum

What's New

Submit a Tab

FAQ

Links

Contact Us

Link to Us

MuSpy.com

MetalTabs.com logo

Bands

0-9

A

B

C

D

E

F

G

H

I

J

K

L

M

N

O

P

Q

R

S

T

U

V

W

X

Y

Z

Search

What

Where
 

Morbid Saint - "Damien" Bass Tab

Plain Text Version
More Morbid Saint Tabs

Hits: 2327
Rated: 5.00 out of 5 (1 vote)
Updated: 2006-11-06 04:23:29

 

By:

hearsaym

sendpm.gif

email.gif

Important note
This tab is available online because we obtained explicit permission from Morbid Saint or their label.


#----------------------------------PLEASE NOTE---------------------------------#
#This file is the author's own work and represents their interpretation of the #
#song. You may only use this file for private study, scholarship, or research. #
#Unless specified otherwise, this is NOT an official tab from the band members.#
#------------------------------------------------------------------------------#

  Visit MetalTabs.com for more metal tablature
  
Band:  Morbid Saint
Album: Spectrum Of Death
Song:  Damien

Copyright (c)  1988 Avanzada Metallica
Version 1.0 - (10/27/06)

Transcribed By: Tony Paletti
Email:          hearsaym@hotmail.com
Website:        http://www.pcmdusa.com/ms

.  - palm mute           /  - slide up to
\  - slide down to       ~  - vibrato
h  - hammer on           b  - Bend
p  - pull off            Suffixes for bend
t  - tap                 f  - full bend    h - half bend
ph - pinched harmonic    q  - quarter bend t - tap bend
*  - see comment         ^  - Hold bend    r release bend
x  - Stuccatto           ~  - vibrato bend
,  - slight palm mute    () - ghost note, sustained note
"  - tremolo note        <> - Trill

Tuning E A D G (tuned down 1/2 step)

Intro
|----------------------------------------------------------------|-
|----------------------------------------------------------------|-
|----------------------------------------------------------------|-
|0---------------------------3-------------------------------2---|-

-|----------------------------------------------------------------|
-|----------------------------------------------------------------|
-|------------------------------------------------5-3-2---2-------|
-|----------------------------3-------------------------5---5-3-2-|
                                                                 x1

Verse
|----------------------------------------------------------------|-
|----------------------------------------------------------------|-
|----------------------------------------------------------------|-
|0-0-0-0-0-0-0-0-0-0-0-0-0-0(3)--0-0-0-0-0-0-0-0-0-0-0-0-0-0(2)--|-

-|----------------------------------------------------------------|
-|----------------------------------------------------------------|
-|------------------------------------------------5-3-2---2-------|
-|0-0-0-0-0-0-0-0-0-0-0-0-0-0(3)--0-0-0-0-0-0-0-0-------5---5-3-2-|
                                                                 x2

Chorus
|----------------------------------------------------------------|
|------------------------------------------------------2---------|
|7-5-7-----7-----7-----7-----7-7-7-0-0-5-0-0-3-0-2-3-5---5(3)----|
|------0-0---0-0---0-0---0-0-------------------------------------|
                                                                x2

*****   skip to Verse   x2      *****
*****   skip to Chorus  x2      *****

Solo I
|----------------------------------------------------------------|-
|----------------------------------------------------------------|-
|----------------------------------------------------------------|-
|0-0-0-0-0-0-0-0-0-0-0-0-0-0(3)--0-0-0-0-0-0-0-0-0-0-0-0-0-0(2)--|-

-|----------------------------------------------------------------|
-|----------------------------------------------------------------|
-|------------------------------------------------5-3-2---2-------|
-|0-0-0-0-0-0-0-0-0-0-0-0-0-0(3)--0-0-0-0-0-0-0-0-------5---5-3-2-|

Solo II
|----------------------------------------------------------------|-
|----------------------------------------------------------------|-
|----------------------------------------------------------------|-
|2-2-2-2-2-2-2-2-2-2-2-2-2-2(5)--2-2-2-2-2-2-2-2-2-2-2-2-2-2(3)--|-

-|----------------------------------------------------------------|
-|------------------------------------------------2---------------|
-|--------------------------------------------------5-3-2-3-2-----|
-|2-2-2-2-2-2-2-2-2-2-2-2-2-2(5)--2-2-2-2-2-2-2-2-------------5-3-|

Solo III
|----------------------------------------------------------------|-
|----------------------------------------------------------------|-
|----------------------------------------------------------------|-
|0-0-0-0-0-0-0-0-0-0-0-0-0-0(3)--0-0-0-0-0-0-0-0-0-0-0-0-0-0(2)--|-

-|----------------------------------------------------------------|-
-|------------------------------------------------2---------------|-
-|--------------------------------------------------5-3-2-3-2-----|-
-|0-0-0-0-0-0-0-0-0-0-0-0-0-0(3)--0-0-0-0-0-0-0-0-------------5-3-|-

-|----------------|
-|----------------|
-|5-3-2---2-------|
-|------5---5-3-2-|


Interlude
|----------------------------------------------------------------|-
|------------------------5-------------------------------5-------|-
|7-----8-----7-----7-------8-7-8-7-----8-----7-----7-------8-7-8-|-
|--0-0---0-0---0-0---0-0-----------0-0---0-0---0-0---0-0---------|-

-|--------------------------------------------------------12109-10|-
-|----------------------------------------------------------------|-
-|5-----6-----5-----5-----8-6-5-6-7-----8-----7-----7-------------|-
-|--0-0---0-0---0-0---0-0-----------0-0---0-0---0-0---0-0---------|-

-|------------------------12109-10------------------------12109-10|-
-|----------------------------------------------------------------|-
-|7-----8-----7-----7-------------7-----8-----7-----7-------------|-
-|--0-0---0-0---0-0---0-0-----------0-0---0-0---0-0---0-0---------|-

-|------------------------108-7-8-----------------7-9-9-999-7-----|-
-|--------------------------------------------7-9-------------9-7-|-
-|5-----6-----5-----5-------------7-----8-------------------------|-
-|--0-0---0-0---0-0---0-0-----------0-0---0-0---------------------|-

-|----------------------------------------------------------------|-
-|------------------------5-------------------------------5-------|-
-|7-----8-----7-----7-------8-7-8-7-----8-----7-----7-------8-7-8-|-
-|--0-0---0-0---0-0---0-0-----------0-0---0-0---0-0---0-0---------|-

-|--------------------------------------------------------12109-10|-
-|----------------------------------------------------------------|-
-|5-----6-----5-----5-----8-6-5-6-7-----8-----7-----7-------------|-
-|--0-0---0-0---0-0---0-0-----------0-0---0-0---0-0---0-0---------|-

-|------------------------12109-10-----------------7-9-9-9997-----|-
-|--------------------------------------------7-9-------------9---|-
-|7-----8-----7-----7-------------7-----8-----------------------7-|-
-|--0-0---0-0---0-0---0-0-----------0-0---0-0---------------------|-

-|----------------------------------------------------------------|
-|----------------------------------------------------------------|
-|5-----6-----5-----5-----8-6-5-6-7-----8-------------------------|
-|--0-0---0-0---0-0---0-0-----------0-0---0-0(0)------------------|
                                                                 x1

*****   skip to Intro   x2      *****
*****   skip to Verse   x2      *****
*****   skip to Chorus  x4      *****

Outro
|--------------------------|
|--------------------------|
|3-2-----3-2-----3-2-------|
|--------------------3-2-0-|
                          x1

END

  Visit MetalTabs.com for more metal tablature

bottom separator

Contact Us | Privacy Policy | Disclaimer | Legal Notice
Copyright © 2001-2014 MetalTabs.com. All Rights Reserved.