top separator

Home

Forum

What's New

Submit a Tab

FAQ

Links

Contact Us

Link to Us

MuSpy.com

MetalTabs.com logo

Bands

0-9

A

B

C

D

E

F

G

H

I

J

K

L

M

N

O

P

Q

R

S

T

U

V

W

X

Y

Z

Search

What

Where
 

Morbid Saint - "Damien" Guitar Tab

Plain Text Version
More Morbid Saint Tabs

Hits: 4339
Rated: 5.00 out of 5 (5 votes)
Updated: 2006-11-06 04:22:37

 

By:

Sycophant

sendpm.gif

email.gif

Important note
This tab is available online because we obtained explicit permission from Morbid Saint or their label.


#----------------------------------PLEASE NOTE---------------------------------#
#This file is the author's own work and represents their interpretation of the #
#song. You may only use this file for private study, scholarship, or research. #
#Unless specified otherwise, this is NOT an official tab from the band members.#
#------------------------------------------------------------------------------#

  Visit MetalTabs.com for more metal tablature
  
Author/Artist: Morbid Saint
Title: Damien
Album: Spectrum Of Death [1990 Avanzada Metalica]
Transcribed by: Greg D. [Sycophant]
Email: sentience666@hotmail.com

Tune To Eb.
Due to the raw production, I have noted all the palm muted notes
on the recording with the '*' symbol to make it easier for you to figure out.

---|--------------------------------------------------------------------------
---|--------------------------------------------------------------------------
---|--------------------------------------------------------------------------
-2-|--------------------------5----------------------------4------------------
-2-|*-*-*-*-*-*-*-*-*-*-*-*-*-5--*-*-*-*-*-*-*-*-*-*-*-*-*-4--*-*-*-*-*-*-*-*-
-0-|0-0-0-0-0-0-0-0-0-0-0-0-0-3--0-0-0-0-0-0-0-0-0-0-0-0-0-2--0-0-0-0-0-0-0-0-
 0:01 - 0:22 [Verse Riff]

---------------------------------------------|--------------------------------
---------------------------------------------|--------------------------------
---------------------------------------------|--------------------------------
-----------5---------------------------------|-*-*-2-*-*-2-*-*-2-*-*-2-*-*-2--
-*-*-*-*-*-5-*-*-*-*-*-*-*-*-5-3-2-----------|-2-2-2-2-2-2-2-2-2-2-2-2-2-2-2--
-0-0-0-0-0-3-0-0-0-0-0-0-0-0-------5-3-5-3-2-|-0-0-0-0-0-0-0-0-0-0-0-0-0-0-0--
                                               0:22 - 0:29 [Chorus Riff]

----------------------------------|-------------------------------------------
----------------------------------|-------------------------------------------
-------------------------*-*-*-5--|-------------------------------------------
-*-*-*-*-*-*-*-*-*-*-*-*-2-3-5-3--|-*-*-*-*-*-*-*-*-*-*-*-*-*-*----*-*-*-*-*--
-2-0-0-5-0-0-3-0-0-2-3-5----------|-2-2-2-2-2-2-2-2-2-2-2-2-2-2-5--2-2-2-2-2--
-0--------------------------------|-0-0-0-0-0-0-0-0-0-0-0-0-0-0-3--0-0-0-0-0--
                                    0:51 - 1:13 [Solo Backing]

------------------------------------------------------------------------------
------------------------------------------------------------------------------
------------------------------------------------------------------------------
-*-*-*-*-*-*-*-*-*-*----*-*-*-*-*-*-*-*-*-*-*-*-*-*----*-*-*-*-*-*-*-*--------
-2-2-2-2-2-2-2-2-2-2-4--2-2-2-2-2-2-2-2-2-2-2-2-2-2-5--2-2-2-2-2-2-2-2-5-3-2--
-0-0-0-0-0-0-0-0-0-0-2--0-0-0-0-0-0-0-0-0-0-0-0-0-0-3--0-0-0-0-0-0-0-0--------


------------------------------------------------------------------------------
------------------------------------------------------------------------------
------------------------------------------------------------------------------
-----------*-*-*-*-*-*-*-*-*-*-*-*-*-*---*-*-*-*-*-*-*-*-*-*-*-*-*-*---*-*-*--
-----------4-4-4-4-4-4-4-4-4-4-4-4-4-4-7-4-4-4-4-4-4-4-4-4-4-4-4-4-4-6-4-4-4--
-5-3-5-3-2-2-2-2-2-2-2-2-2-2-2-2-2-2-2-5-2-2-2-2-2-2-2-2-2-2-2-2-2-2-4-2-2-2--


------------------------------------------------------------------------------
------------------------------------------------------------------------------
------------------------------------------------------------------------------
-*-*-*-*-*-*-*-*-*-*-*---*-*-*-*-*-*-*-*-----------------*-*-*-*-*-*-*-*-*-*--
-4-4-4-4-4-4-4-4-4-4-4-7-4-4-4-4-4-4-4-4-5-3-2-----------2-2-2-2-2-2-2-2-2-2--
-2-2-2-2-2-2-2-2-2-2-2-5-2-2-2-2-2-2-2-2-------5-3-5-3-2-0-0-0-0-0-0-0-0-0-0--


------------------------------------------------------------------------------
------------------------------------------------------------------------------
------------------------------------------------------------------------------
-*-*-*-*----*-*-*-*-*-*-*-*-*-*-*-*-*-*-*-*-*-*-*-*-*-*-*-*-*-*-*-*-*-*-*-----
-2-2-2-2-5--0-0-5-0-0-5-0-0-3-0-5-0-7-0-7-0-2-2-2-2-2-2-2-2-2-2-2-2-2-2-2-5---
-0-0-0-0-3----------------------------------0-0-0-0-0-0-0-0-0-0-0-0-0-0-0-3---


-------------------------------------------------|----------------------------
-------------------------------------------------|----------------------------
-------------------------------------------------|----------------------------
-*-*-*-*-*-*-*-*-*-*-*-----------*-*-*-----------|-9-----10----9-----9--------
-2-2-2-2-2-2-2-2-5-3-2-*-*-*-*-*-5-3-2-*-*-*-*-*-|-7-*-*-8-*-*-7-*-*-7-*-*-10-
-0-0-0-0-0-0-0-0-------5-3-5-3-2-------5-3-5-3-2-|---0-0---0-0---0-0---0-0----
                                                   1:13 - 1:51 [Breakdown]

------------------------------------------------------------------------------
------------------------------------------------------------------------------
------------------------------------------------------------------------------
-------9-----10----9-----9----------------7-----8-----7-----8-------------9---
-8-7-8-7-*-*-8-*-*-7-*-*-7-*-*-10-8-7-8-7-5-*-*-6-*-*-5-*-*-6-*-*-8-6-5-6-7---
---------0-0---0-0---0-0---0-0--------------0-0---0-0---0-0---0-0-------------


--------------------------------|---------------------------------------------
--------------------------------|---------------------------------------------
--------------------------------|---------------------------------------------
-----10----9-----9--------------|-12-10-9-10----------------10-8-7-8----------
-*-*-8-*-*-7-*-*-7-*-*-10-8-7-8-|---------------------------------------------
-0-0---0-0---0-0---0-0----------|---------------------------------------------
                                        octave harmony parts

--------------------------------|---------------------------------------------
--------------------------------|---------------------------------------------
-------------9------------------|---------------------------------------------
-9-----10----9------------------|-5-4--4-4--4-----2---------------------------
-7-*-*-8-*-*-7------------------|-3-2--2-2--2--5--2---------------------------
---0-0---0-0-0------------------|--------------3--0---------------------------
 1:51 - 1:59                     2:35 - end      [DIE!!!]

  Visit MetalTabs.com for more metal tablature

bottom separator

Contact Us | Privacy Policy | Disclaimer | Legal Notice
Copyright © 2001-2014 MetalTabs.com. All Rights Reserved.