top separator

Home

Forum

What's New

Submit a Tab

FAQ

Links

Contact Us

Link to Us

MuSpy.com

MetalTabs.com logo

Bands

0-9

A

B

C

D

E

F

G

H

I

J

K

L

M

N

O

P

Q

R

S

T

U

V

W

X

Y

Z

Search

What

Where
 

Mourning Beloveth - "Disintegrate *" Bass Tab

Plain Text Version
More Mourning Beloveth Tabs

Hits: 1905
Rated: 5.00 out of 5 (4 votes)
Updated: 2006-11-07 06:24:15

 

By:

Paddy

sendpm.gif

email.gif

Important note
This tab is available online because we obtained explicit permission from Mourning Beloveth or their label.


#----------------------------------PLEASE NOTE---------------------------------#
#This file is the author's own work and represents their interpretation of the #
#song. You may only use this file for private study, scholarship, or research. #
#Unless specified otherwise, this is NOT an official tab from the band members.#
#------------------------------------------------------------------------------#

  Visit MetalTabs.com for more metal tablature
  
================================================================================
                      M O U R N I N G     B E L O V E T H

                                       -

                             D I S I N T E G R A T E
================================================================================


                               A MURDEROUS CIRCUS
                            (c) Grau Records - 2005
                        http://www.mourningbeloveth.com/


                              Tune Down 1 & 1/2 Steps
                                    C# F# B E

                                 Tempo =  70 BPM
                              Time Signature =  4/4



                          -----------------------------
                                 Transcribed by

                                 PADDY MCMULLAN
                           stinkypoohpants@yahoo.co.uk

                                   Version 1.0
                             -----------------------

                             Tablature Symbols Used:


 p         -  Pull-Off
 h         -  Hammer-On
 (/)       -  Legato Slide (Blank space indicates length of slide)
 \         -  Slide Down to/Down From (Blank space indicates length of slide)
 /         -  Slide Up To/Up From (Blank space indicates length of slide)
 ( )       -  Ghost Note/Tied Note/Implied Note
 REST      -  Rest, and sustain rest for duration of blank space
 |_3_|     -  Triplet Notes




================================================================================
Rest for 3 bars
================================================================================

================================================================================
Riff 1: Play 3 times
================================================================================


                         1                       2
||--R-      -----------||-----------------------|-----------------------|
||--E-      -----------||-----------------------|-----------------------|
||--S-      -----------||-----------------------|-----------------------|
||--T-      -5----3----||--1------1--1--1----1--|--1------1--1---3---1--|

 3                         4                      5
|-------------------------|----------------------|----------------------|
|-------------------------|----------------------|----------------------|
|-------------------------|----------------------|----------------------|
|--1------1--1--(1/3)--1--|--0------0--1------1--|--5------5--5------5--|

 6                      7                      8
|----------------------|----------------------|----------------------||
|----------------------|----------------------|----------------------||
|----------------------|----------------------|----------------------||
|--5------5--5------5--|--5------5--5------5--|--5------5--5----3----||



Note: the last repeat of this riff only continues as far as bar 4, after which
the succeeding riff begins.



================================================================================
Riff 2: Play 4 times
================================================================================


||-----------------------|-----------------------|-----------------------|
||-----------------------|-----------------------|-----------------------|
||-----------------------|-----------------------|-----2--------------2--|
||--0-----------0--3--0--|--2-----------2--2--2--|--3--------------------|


|---------------------|-----------------------|-----------------------| |
|---------------------|-----------------------|-----------------------|*|
|--2--0---------------|--2--2--------------2--|-----------------------|*|
|---------------------|-----------------------|--2-----------2--2--2--| |



After the 4th repeat, end the riff by playing the following:



||----------------------|----------------------||
||----------------------|----------------------||
||----------------------|----------------------||
||--0------0--0------0--|--0------0--0------0--||



================================================================================
Riff 3: Play once
================================================================================


| |-------------------|-------------------|-------------------|
|3|-------------------|-------------------|-------------------|
|/|-------------3--2--|-------------3--2--|-------------3--2--|
|4|--0------0-0-------|--0------0-0-------|--0------0-0-------|


| |-------------------R-  -||
|4|-------------------E-  -||
|/|-------------3--2--S-  -||
|4|--1------1-0-------T-  -||



================================================================================
Riff 4: Play 10 times
================================================================================


| |--------------------|--------------------|--------------------|
|3|--------------------|--------------------|--------------------|
|/|--0--0--0--0--0--0--|--0--0--0--0--0--0--|--------------------|
|4|--------------------|--------------------|--1--1--1--1--1--1--|


|--------------------| |
|--------------------|*|
|--------------3--2--|*|
|--3--3--3--3--------| |



================================================================================
Riff 5: Play twice [ Tempo = 80 BPM ]
================================================================================


||--------------------------|--------------------------|
||--------------------------|--------------------------|
||--0-0-2-2-3-3-5-5-3-3-2-2-|--0-0-2-2-3-3-5-5-3-3-2-2-|
||--------------------------|--------------------------|


|--------------------------|--------------------------| |
|--3-3-2-2-0-0-2-2-0-0-----|--------------------------|*|
|----------------------3-3-|--2-2-3-3-5-5-----3-3-2-2-|*|
|--------------------------|--------------3-3---------| |



================================================================================
Play Riff 3 once
================================================================================

================================================================================
Riff 6: Play 4 times
================================================================================


| |--------------------------|--------------------------|
|4|--------------------------|--------------------------|
|/|--------------------------|-----3--3--3--3--2--2--0--|
|4|--0--0--0--0--0--0--0--0--|--0-----------------------|


|--------------------------|--------------------------| |
|--------------------------|--------------------------|*|
|--------------------------|-----5--5--5--5--3--3--3--|*|
|--3--3--3--3--3--3--3--3--|--3-----------------------| |



On the last repeat, replace the last bar with the following:



|--------------------------||
|--------------------------||
|-----5--5--5--5--3--5--7--||
|--3-----------------------||



================================================================================
Riff 7: Play once
================================================================================


||---------------------|--------------------------|
||---------------------|--------------------------|
||--7------------------|----------2h 3-3--2----0--|
||-----------0------0--|--0--0--------------------|


|----------------------|--------------------------|---------------------|
|----------------------|--------------------------|---------------------|
|----------------------|-----5--5--5--5--3--5--7--|--7------------------|
|--3------3--3------3--|--3-----------------------|-----------0------0--|


|--------------------------|----------------------|
|--------------------------|----------------------|
|----------2h 3-3--2----0--|----------------------|
|--0--0--------------------|--3------3--3------0--|


|--------------------------||
|--------------------------||
|--------3--2-----5--3--2--||
|--1--3--------3-----------||



================================================================================
Play Riff 6 twice, including variation
================================================================================

================================================================================
Play Riff 7 once
================================================================================

================================================================================
Riff 8: Play 4 times [ Tempo = 72 BPM ]
================================================================================


||-----------------------|---------------------------|
||-----------------------|---------------------------|
||--5--------------------|-----------------2----2h 3-|
||-----0----0----2----2--|--(2)--3----3--------------|


|----------------------|----------------------||
|----------------------|----------------------||
|----------------------|--2-------------------||
|--0------0--0--0------|-------3----5----2----||



================================================================================
Riff 9: Play 8 times
================================================================================


||-----------------------|-----------------------------|
||-----------------------|-----------------------------|
||-----------------------|-----------------------------|
||--0-----------2----0-2-|--3------0-2-3-0-2-3-5-3-2-3-|


|----------------------|------------------------------| |
|----------------------|------------------------------|*|
|----------------------|--2---------------------------|*|
|--0---------------0-0-|-----0-3--0-5--0-2--0-3-3-2-0-| |



After the first repeat, the last bar is replaced with the following:



After the last repeat, end the song on the following:



||-----R-   -||
||-----E-   -||
||-----S-   -||
||--0--T-   -||



================================================================================
End
================================================================================


Tab summary:        Rest for 3 bars
                    Riff 1 X 3
                    Riff 2 X 4
                    Riff 3 X 1
                    Riff 4 X 1
                    Riff 5 X 2
                    Riff 3 X 1
                    Riff 6 X 4
                    Riff 7 X 1
                    Riff 6 X 2
                    Riff 7 X 1
                    Riff 8 X 4
                    Riff 9 X 8

                    End

  Visit MetalTabs.com for more metal tablature

bottom separator

Contact Us | Privacy Policy | Disclaimer | Legal Notice
Copyright © 2001-2014 MetalTabs.com. All Rights Reserved.