top separator

Home

Forum

What's New

Submit a Tab

FAQ

Links

Contact Us

Link to Us

MetalTabs.com logo

Bands

0-9

A

B

C

D

E

F

G

H

I

J

K

L

M

N

O

P

Q

R

S

T

U

V

W

X

Y

Z

Search

What

Where
 

My Dying Bride - "Catherine Blake" Bass Tab

Plain Text Version
More My Dying Bride Tabs

Hits: 2763
Rated: 5.00 out of 5 (1 vote)
Updated: 2006-11-07 06:30:00

 

By:

Paddy

sendpm.gif

email.gif

Important note
This tab is available online because we obtained explicit permission from My Dying Bride or their label.


#----------------------------------PLEASE NOTE---------------------------------#
#This file is the author's own work and represents their interpretation of the #
#song. You may only use this file for private study, scholarship, or research. #
#Unless specified otherwise, this is NOT an official tab from the band members.#
#------------------------------------------------------------------------------#

  Visit MetalTabs.com for more metal tablature
  
================================================================================
                            M Y   D Y I N G   B R I D E

                                         -

                           C A T H E R I N E   B L A K E
================================================================================


                         SONGS OF DARKNESS, WORDS OF LIGHT
                          (c) Peaceville Records - 2004
                           http://www.mydyingbride.org/


                              Tune Down  1 & 1/2 Steps
                                     C# F# B E

                                   Tempo = 60 BPM
                                Time Signature = 4/4



                          -----------------------------
                                  Transcribed by

                                  PADDY MCMULLAN
                            stinkypoohpants@yahoo.co.uk

                                   Version 1.0
                             -----------------------

                             Tablature Symbols Used:


 p         -  Pull-Off
 h         -  Hammer-On
 \         -  Slide Down to/Down From
 /         -  Slide Up To/Up From
 ( / )     -  Legato Slide
 ( )       -  Ghost Note/Tied Note/Implied Note
 REST      -  Rest and sustain rest for duration of blank space
 *         -  Staccato Note
 |_3_|     -  Triplet Notes



================================================================================
Riff 1: Play 4 times
================================================================================


||--R-          -----  -| |
||--E-          -----  -|*|
||--S-          -----  -|*|
||--T-          -0-0-  -| |



================================================================================
Riff 2: Play 4 times
================================================================================


||------------------------|----------------------| |
||------------------------|----------------------|*|
||-------------------*----|----------------------|*|
||--0------0--0----0-0----|--0------0--0------0--| |



================================================================================
Riff 3: Play 4 times
================================================================================


||----------------------|----------------------|----------------------|
||-------------------*--|-------------------*--|-------------------*--|
||--2------2--0------0--|--3------3--3------3--|--7------7--5------5--|
||----------------------|----------------------|----------------------|


|---------------------| |
|------------------*--|*|
|--5------5--------5--|*|
|---------------------| |



================================================================================
Riff 4: Play once
================================================================================


  1                      2                      3
||----------------------|----------------------|----------------------|
||----------------------|----------------------|----------------------|
||-----------------*----|-----------------*----|-----------------*----|
||--0------------0-0----|--0------------0-0----|--0------------0-0----|

 4                      5                   6
|----------------------|-------------------|-------------------|
|----------------------|-------------------|-------------------|
|-----------------*----|-------------------|-------------------|
|--0------------0-0----|--0----------------|--(0)--------------|

 7                   8
|-------------------|-------------------||
|-------------------|-------------------||
|-------------------|-------------------||
|--(0)--------------|--(0)--------------||



================================================================================
Riff 5: Play 6 times
================================================================================


    |_3_| |_3_| |_3_| |_3_| |_3_| |_3_| |_3_| |_3_|
||--------------------------------------------------|
||--2-2-2-2-2-2-2-2-2-2-2-2-1-1-1-1-1-1-1-1-1-1-1-1-|
||--------------------------------------------------|
||--------------------------------------------------|


   |_3_| |_3_| |_3_| |_3_| |_3_| |_3_| |_3_| |_3_|
|--------------------------------------------------| |
|--------------------------------------------------|*|
|--2-2-2-2-2-2-2-2-2-2-2-2-1-1-1-1-1-1-1-1-1-1-1-1-|*|
|--------------------------------------------------| |



On the second repeat only, replace the last bar with the following:



   |_3_| |_3_| |_3_| |_3_| |_3_| |_3_| |_3_| |_3_|
|--------------------------------------------------||
|--------------------------------------------------||
|--2-2-2-2-2-2-2-2-2-2-2-2-1-1-1-1-1-1-2-2-2-1-1-1-||
|--------------------------------------------------||



Note the slight variation in the last 2 triplets of the bar



After the last repeat, play and hold the following note for 2 bars:


||-------------------|-------------------||
||-------------------|-------------------||
||--7----------------|--(7)--------------||
||-------------------|-------------------||



================================================================================
Rest for 8 bars
================================================================================

================================================================================
Riff 6: Play once through
================================================================================


||--------------------|---------------------|-------------------|
||--------------------|---------------------|-------------------|
||--2--------0--------|--3-----------3------|--2----------------|
||--------------------|---------------------|-------------------|


|--R-              -|--------------------|-------------------|
|--E-              -|--------------------|-------------------|
|--S-              -|--2--------0--------|--3----------------|
|--T-              -|--------------------|-------------------|


|-------------------|--R-              -||
|-------------------|--E-              -||
|--2----------------|--S-              -||
|-------------------|--T-              -||



================================================================================
Rest for 4 bars
================================================================================

================================================================================
Riff 7: Play 4 times
================================================================================


    |_3_| |_3_| |_3_| |_3_| |_3_| |_3_| |_3_| |_3_|
||--------------------------------------------------| |
||--------------------------------------------------|*|
||--------------------------------------------------|*|
||--0-----0---0-0-----0-----0---0-0-----0---0-0---0-| |



================================================================================
Riff 8: Play once
================================================================================


    |_3_| |_3_| |_3_| |_3_| |_3_| |_3_| |_3_| |_3_|
||--------------------------------------------------|
||--------------------------------------------------|
||--------------------------------------------------|
||--3---3-3-3---3---3-3-3---3---3-3-3---3---6-6-6-5-|


   |_3_| |_3_| |_3_| |_3_| |_3_| |_3_| |_3_| |_3_|
|--------------------------------------------------||
|--------------------------------------------------||
|--------------------------------------------------||
|--2---2-2-2---2---2-2-2---2---2-2-2---2-1-1-1-1-1-||



================================================================================
Play Riff 7 four times
================================================================================

================================================================================
Play Riff 8 once
================================================================================

================================================================================
Play Riff 7 four times
================================================================================

================================================================================
Play Riff 8 once
================================================================================

================================================================================
Play Riff 7 four times
================================================================================

================================================================================
Play Riff 8 once
================================================================================

================================================================================
Plat the first 4 bars of Riff 4
================================================================================

================================================================================
End
================================================================================


Tab summary:        Riff 1 X 4
                    Riff 2 X 4
                    Riff 3 X 4
                    Riff 4 X 1
                    Riff 5 X 6
                    Riff 7 X 4
                    Riff 8 X 1
                    Riff 7 X 4
                    Riff 8 X 1
                    Riff 7 X 4
                    Riff 8 X 1
                    Riff 7 X 4
                    Riff 8 X 1
                    Riff 4 X 1

                    END

  Visit MetalTabs.com for more metal tablature

bottom separator

Contact Us | Privacy Policy | Disclaimer | Legal Notice
Copyright © 2001-2014 MetalTabs.com. All Rights Reserved.