top separator

Home

Forum

What's New

Submit a Tab

FAQ

Links

Contact Us

Link to Us

MetalTabs.com logo

Bands

0-9

A

B

C

D

E

F

G

H

I

J

K

L

M

N

O

P

Q

R

S

T

U

V

W

X

Y

Z

Search

What

Where
 

Malevolent Creation - "Preyed Upon" Guitar Tab

Plain Text Version
More Malevolent Creation Tabs

Hits: 2279
Rated: 5.00 out of 5 (1 vote)
Updated: 2006-11-06 02:36:59

 

By:

Ema

sendpm.gif

email.gif

Important note
This tab is available online because we obtained explicit permission from Malevolent Creation or their label.


#----------------------------------PLEASE NOTE---------------------------------#
#This file is the author's own work and represents their interpretation of the #
#song. You may only use this file for private study, scholarship, or research. #
#Unless specified otherwise, this is NOT an official tab from the band members.#
#------------------------------------------------------------------------------#

  Visit MetalTabs.com for more metal tablature
  
PREYED UPON
 By MALEVOLENT CREATION
 (Music: Fasciana  Lyrics: Blachowicz)
 As Performed On IN COLD BLOOD 1997
 PAVEMENT MUSIC Records

 Tabbed By Ema

 Tuning Db


 RIFF 1 INTRO x1

|FASCIANA
|-------------|-------------|-------------|-------------|
|-------------|-------------|-------------|-------------|
|-------------|-------------|-------------|-------------|
|-------------|-------------|-------------|-------------|
|-------2-3-2-|-------2-3-2-|-------2-3-2-|-------2-3-2-|
|-0-000-0-1-0-|-0-000-0-1-0-|-0-000-0-1-0-|-0-000-0-1-0-|
| . ... . . .   . ... . . .   . ... . . .   . ... . . .
|
|SOARS
|-------------|-------------|-------------|-------------|
|-------------|-------------|-------------|-------------|
|-------------|-------------|-------------|-------------|
|-------------|-------------|-------------|-------------|
|-2-----------|-------2-3-2-|-2-----------|-------2-3-2-|
|-0-----------|-------0-1-0-|-0-----------|-------0-1-0-|
  .x                  . . .   .x                  . . .


|FASCIANA
|-------------|-------------|-------------|-------------|
|-------------|-------------|-------------|-------------|
|-------------|-------------|-------------|-------------|
|-------------|-------------|-------------|-------------|
|-------2-3-2-|-------2-3-2-|-------2-3-2-|-------3-----|
|-0-000-0-1-0-|-0-000-0-1-0-|-0-000-0-1-0-|-0-000-1-----|
| . ... . . .   . ... . . .   . ... . . .   . ... .x
|
|SOARS
|-------------|-------------|-------------|-------------|
|-------------|-------------|-------------|-------------|
|-------------|-------------|-------------|-------------|
|-------------|-------------|-------------|-------------|
|-2-----------|-------2-3-2-|-------2-3-2-|-------3-----|
|-0-----------|-------0-1-0-|-0-000-0-1-0-|-0-000-1-----|
  .x                  . . .   . ... . . .   . ... .x



 SOLO 1
  N.H. BAR                                                  BAR
|-----------------------12h15p12----------12----------------------------------|
|-7/////\\\\\\/\/\/\\------------15b^^^------15-12-13-15----------------------|
|-7/////\\\\\\/\/\/\\------------------------------------14b///\\/\/\\/\/\\---|
|-----------------------------------------------------------------------------|
|-----------------------------------------------------------------------------|
|-----------------------------------------------------------------------------|

           N.H. BAR                  N.H. BAR
|---------------------------------------------------------------|
|---------------------------------------------------------------|
|----------3\\/////\//\/\\/\/\\/\\---5//\/\/\/\/\/\/\\/\/\\-----|
|-14b^^^--------------------------------------------------------|
|---------------------------------------------------------------|
|---------------------------------------------------------------|




 RIFF 1A x4 UNDER SOLO

|-------------|-------------|-------------|-------------|
|-------------|-------------|-------------|-------------|
|-------------|-------------|-------------|-------------|
|-------------|-------------|-------------|-------------|
|-------------|-------------|-------------|-------------|
|-0-000-0-0-0-|-0-000-0-0-0-|-0-000-0-0-0-|-0-000-0-0-0-|
  . ... . . .   . ... . . .   . ... . . .   . ... . . .



 RIFF 2 INTRO x2

|-------------|-------------|-------------|-------------|
|-------------|-------------|-------------|-------------|
|-------------|-------------|-------------|-------------|
|-------------|-------------|-------------|-------------|
|-------------|-------------|-------------|-------88888-|
|-0-000-0-0-0-|-0-000-0-0-0-|-0-000-0-0-0-|-0-000-------|
  . ... . . .   . ... . . .   . ... . . .   . ... .....


|-------------|-------------|-------------|-------------|
|-------------|-------------|-------------|-------------|
|-------------|-------------|-------------|-------------|
|-------------|-------------|-------------|-------------|
|-------------|-------------|-88888855555-|-55555699999-|
|-0-000-0-0-0-|-0-000-0-0-0-|-------------|-------------|
  . ... . . .   . ... . . .   ...........   ...........



 RIFF 3 CHORUS x2

|x3
|-------------------------------------------------|
|-------------------------------------------------|
|-------------------------------------------------|
|-------------------------------------------------|
|-3-----------------------------------------------|
|-1-----------------------4-3-1-0-1-0-4-3-1-0-1-0-|
                          . . . . . . . . . . . .


|x1
|-------------------------------------------------|
|-------------------------------------------------|
|-------------------------------------------------|
|-------------------------------------------------|
|-3-----------------------2-----------------------|
|-1-----------------------0-----------------------|




 RIFF 4 INTRO x1

|x3
|-----------------------------------------------------------------|
|-----------------------------------------------------------------|
|-----------------------------------------------------------------|
|-----------------------------------------------------------------|
|-3---------------------------------------------------------------|
|-1-------------------------------4-3-1-3-0-2-1-0-4-3-1-3-0-2-1-0-|
                                  . . . . . . . . . . . . . . . .


|x1
|-----------------------------------------------------------------|
|-----------------------------------------------------------------|
|-----------------------------------------------------------------|
|-----------------------------------------------------------------|
|-3-------------------------------2-------------------------------|
|-1-------------------------------0-------------------------------|




 RIFF 5 VERSE x2

|--------------------------------------------------|
|--------------------------------------------------|
|--------------------------------------------------|
|--------------------------------------------------|
|-------------------------------------------443444-|
|-111111111111222221222220111111111111222221-------|
  ................................................


|--------------------------------------------------|
|--------------------------------------------------|
|--------------------------------------------------|
|------------------------------------------------6-|
|------------------------------------------------5-|
|-111111111111222221222220111111111111222221-5-4---|
  .......................................... . .


|--------------------------------------------------|
|--------------------------------------------------|
|--------------------------------------------------|
|--------------------------------------------------|
|-------------------------------------------443444-|
|-111111111111222221222220111111111111222221-------|
  ................................................


|--------------------------------------------------|
|--------------------------------------------------|
|--------------------------------------------------|
|------------------------------------------------6-|
|--------------------------------------4---------5-|
|-111111111111222221222220111111111111-2-----5-4---|
  ....................................  x    . .



 RIFF 5A VERSE x2

|--------------------------------------------------|
|--------------------------------------------------|
|--------------------------------------------------|
|--------------------------------------------------|
|-------------------------------------------443444-|
|-111111111111222221222220111111111111222221-------|
  ................................................


|--------------------------------------------------|
|--------------------------------------------------|
|--------------------------------------------------|
|------------------------------------------------6-|
|------------------------------------------------5-|
|-111111111111222221222220111111111111222221-5-4---|
  .......................................... . .



 RIFF 6 BREAK x4

|-------------------------------------|
|-------------------------------------|
|-------------------------------------|
|-7--------6--------5--------4--------|
|-5--------4--------3--------2--------|
|---444333---333222---222111---111000-|
    ......   ......   ......   ......



 RIFF 7 INTERLUDE x4

|-------------------------------------|
|-------------------------------------|
|-------------------------------------|
|-------------------------------------|
|-------------------------------------|
|-222222112222221122222211222-1-0-5-4-|
  ........................... . . . .



 RIFF 1 BREAK x1


 SOLO 2
    BAR
|-19///\/\/\/\/\\/\\---20fb^^^r---19b^^^^^---------------------18-19-18-------|
|--------------------------------------------18-20-21-18-20-21----------21-20-|
|-----------------------------------------------------------------------------|
|-----------------------------------------------------------------------------|
|-----------------------------------------------------------------------------|
|-----------------------------------------------------------------------------|

                                                         BAR/\/\/\/\/\/\/\/\\
|-----------------------------------------------------------------------------|
|-18------------------------------------2222222222222222-19-22-19-21-18-20-17-|
|----21--19--18--21--19--18--21b^^^^^-----------------------------------------|
|-----------------------------------------------------------------------------|
|-----------------------------------------------------------------------------|
|-----------------------------------------------------------------------------|

  BAR/\/\/\/\/\/\/\/\/\/\/\/\/\
|----------------------------------------------------------------------------|
|-19-16-18-15-17-14-16-13-15-12---8-9-11-9-8---------------------------------|
|--------------------------------------------9-7-6-7-9-7-6-------------------|
|----------------------------------------------------------8-6-5-6-8-6-5-----|
|------------------------------------------------------------------------7-5-|
|----------------------------------------------------------------------------|

                  S.H. BAR     S.H. BAR
|---------------------------------------------------|
|---------------------------------------------------|
|---------------------------------------------------|
|------------------------------3////\\\\\\/\/\\-----|
|-4-5-7-5-4-------3//\\/\/\\------------------------|
|-----------6-4-3-----------------------------------|




 RIFF 1A x4 UNDER SOLO 2

 RIFF 2 INTERLUDE x2

 RIFF 3 CHORUS x2

 RIFF 4 BREAK x1

 RIFF 5 VERSE x2

 RIFF 5A VERSE x2

 RIFF 6 OUTRO x4


 FILL 1 END

|-------|
|-------|
|-------|
|-------|
|-3-----|
|-1-----|
   x

  Visit MetalTabs.com for more metal tablature

bottom separator

Contact Us | Privacy Policy | Disclaimer | Legal Notice
Copyright © 2001-2014 MetalTabs.com. All Rights Reserved.