top separator

Home

Forum

What's New

Submit a Tab

FAQ

Links

Contact Us

Link to Us

MetalTabs.com logo

Bands

0-9

A

B

C

D

E

F

G

H

I

J

K

L

M

N

O

P

Q

R

S

T

U

V

W

X

Y

Z

Search

What

Where
 

Dismember - "Time Heals Nothing" Guitar Tab

Plain Text Version
More Dismember Tabs

Hits: 3042
Rated: 5.00 out of 5 (2 votes)
Updated: 2006-11-04 00:22:19

 

By:

Cannibal Carcass

sendpm.gif

email.gif

Important note
This tab is available online because we obtained explicit permission from Dismember or their label.


#----------------------------------PLEASE NOTE---------------------------------#
#This file is the author's own work and represents their interpretation of the #
#song. You may only use this file for private study, scholarship, or research. #
#Unless specified otherwise, this is NOT an official tab from the band members.#
#------------------------------------------------------------------------------#

  Visit MetalTabs.com for more metal tablature
  
Band:  Dismember
Album: The God That Never Was
Song:  Time Heals Nothing

Copyright (c)  Regain Records 2006
Version 1.0 - 2006

Transcribed By: Cannibal Carcass
Email:          cannibal764@yahoo.com



Gtr I (C F Bb Eb G C) - 'Guitar 1'
Gtr II (C F Bb Eb G C) - 'Guitar 2'
Gtr III (C F Bb Eb G C) - 'Lead Guitar'
Gtr IV (C F Bb Eb G C) - 'Lead Guitar 2'

  Q=120
 4/4
  Gtr I
  W                                 Q       Q  H
|---------------------------------|-----------------|
|---------------------------------|-----------------|
|---------------------------------|-----------------|
|---------------------------------|-----------------|
|---------------------------------|---------5--3----|
|---------------------------------|---------5--3----|
|
| Gtr II
| S S S S S S S S S S S S S S S S   S S S S Q  H
|---------------------------------|-----------------|
|---------------------------------|-----------------|
|---------------------------------|-----------------|
|---------------------------------|-----------------|
|-7-7-----------------------------|---------5--3----|
|-----5-5-0-0-5-5-7-7-8-8-7-7-5-5-|-3-3-3-3-5--3----|


  E E   Q       H                 S S S S S S S S S S S S S S S S
|-------------------------------|---------------------------------|
|-------------------------------|---------------------------------|
|-------------------------------|---------------------------------|
|-------------------------------|---------------------------------|
|-2-----------------------------|-----5-5-3-3-2-2-----------------|
|-0-----------------------------|-3-3-------------1-1-0-0-1-1-3-3-|
|
| E S S S S S S S S S S S S S S   S S S S S S S S S S S S S S S S
|-------------------------------|---------------------------------|
|-------------------------------|---------------------------------|
|-------------------------------|---------------------------------|
|-------------------------------|---------------------------------|
|-2-----------------------------|-----5-5-3-3-2-2-----------------|
|-0-5-5-0-0-5-5-7-7-8-8-7-7-5-5-|-3-3-------------1-1-0-0-1-1-3-3-|


  Gtrs I, II
  S S S S S S S S S S S S S S S S   S S S S S S S S S S S S S S S S
|---------------------------------|---------------------------------|
|---------------------------------|---------------------------------|
|---------------------------------|---------------------------------|
|---------------------------------|---------------------------------|
|-7-7-----------------------------|---------5-5-5-5-----------------|
|-----5-5-0-0-5-5-7-7-8-8-7-7-5-5-|-3-3-3-3---------1-1-0-0-1-1-3-3-|


  S S S S S S S S S S S S S S S S   S S S S S S S S S S S S S S S S
|---------------------------------|---------------------------------|
|---------------------------------|---------------------------------|
|---------------------------------|---------------------------------|
|---------------------------------|---------------------------------|
|-7-7-----------------------------|-----5-5-3-3-2-2-----------------|
|-----5-5-0-0-5-5-7-7-8-8-7-7-5-5-|-3-3-------------1-1-0-0-1-1-3-3-|


    S S S S S S S S S S S S S S S S   S S S S S S S S S S S S S S S S
||----------------------------------|---------------------------------||
||o---------------------------------|--------------------------------o||
||----------------------------------|---------------------------------||
||----------5-5-----7-7-------------|---------------------------------||
||o-----7-7-----7-7-----7-7-8-8-7-7-|-----7-7-5-5-----5-5------------o||
||--5-5-----------------------------|-5-5---------8-8-----8-8-7-7-3-3-||


    S S S S S S S S S S S S S S S S   S S S S S S S S S S S S S S S S
||----------------------------------|---------------------------------||
||o---------------------------------|--------------------------------o||
||----------------------------------|---------------------------------||
||----------------------------------|---------------------------------||
||o---------------------------------|--------------------------------o||
||--1-1-1-1-4-4-4-4-4-4-4-4-3-3-4-4-|-4-4-4-4-1-1-3-3-4-4-3-3-1-1-4-4-||


  S S S S S S S S S S S S S S S S   S S S S S S S S S S S S S S S S
|---------------------------------|---------------------------------|
|---------------------------------|---------------------------------|
|---------------------------------|---------------------------------|
|---------5-5-----7-7-------------|---------------------------------|
|-----7-7-----7-7-----7-7-8-8-7-7-|-----7-7-5-5-3-3-5-5-3-3-2-2-----|
|-5-5-----------------------------|-5-5-------------------------3-3-|


    S S S S S S S S S S S S S S S S   S S S S S S S S S S S S S S S S
||----------------------------------|---------------------------------||
||o---------------------------------|--------------------------------o||
||----------------------------------|---------------------------------||
||----------------------------------|---------------------------------||
||o---------------------------------|--------------------------------o||
||--1-1-1-1-4-4-4-4-4-4-4-4-3-3-4-4-|-4-4-4-4-1-1-3-3-4-4-3-3-1-1-4-4-||


    S S S S S S S S S S S S S S S S   S S S S S S S S S S S S S S S S
||----------------------------------|---------------------------------||
||o---------------------------------|--------------------------------o||
||----------------------------------|---------------------------------||
||----------5-5-----7-7-------------|---------------------------------||
||o-----7-7-----7-7-----7-7-8-8-7-7-|-----7-7-5-5-3-3-5-5-3-3-2-2----o||
||--5-5-----------------------------|-5-5-------------------------3-3-||


   W                        H      H
|------------------------|------------------|
|------------------------|------------------|
|------------------------|------------------|
|--2---------------------|------------------|
|--0---------------------|--5------3--------|
|------------------------|--3------1--------|
|
| Gtrs III, IV
|  E  E  E  E  Q.      E    Q   Q  E E E  E
|------------------------|------------------|
|------------------------|------------------|
|------------------------|------------------|
|-14----------12b14r==10-|-----12-----------|
|----12----12------------|-10---------------|
|-------12---------------|---------8-7-8-10-|


   W                        H         H
|------------------------|---------------------|
|------------------------|---------------------|
|------------------------|---------------------|
|--2---------------------|---------------------|
|--0---------------------|--5---------3--------|
|------------------------|--3---------1--------|
|
|  E  E  E  E  Q.      E    E  E  E E E E E  E
|------------------------|---------------------|
|------------------------|---------------------|
|------------------------|---------------------|
|-14----------12b14r==10-|----12-10-9----------|
|----12----12------------|-10------------------|
|-------12---------------|------------8-7-8-10-|


   W                        H      H
|------------------------|------------------|
|------------------------|------------------|
|------------------------|------------------|
|--2---------------------|------------------|
|--0---------------------|--5------3--------|
|------------------------|--3------1--------|
|
| Gtr III
|  E  E  E  E  Q.      E    Q   Q  E E E  E
|------------------------|------------------|
|------------------------|------------------|
|------------------------|------------------|
|-14-----------9b10------|-----12-----------|
|----12----12---------10-|-10---------------|
|-------12---------------|---------8-7-8-10-|
|
| Gtr IV
|  E  E  E  E  Q.      E    Q   Q  E E E  E
|------------------------|------------------|
|------------------------|------------------|
|------------------------|------------------|
|-14----------12b14r==10-|-----12-----------|
|----12----12------------|-10---------------|
|-------12---------------|---------8-7-8-10-|


   W                        H         E E Q
|------------------------|---------------------|
|------------------------|---------------------|
|------------------------|---------------------|
|--2---------------------|---------------------|
|--0---------------------|--5---------2--------|
|------------------------|--3---------0--------|
|
|  E  E  E  E  Q.      E    E  E  E E E E E  E
|------------------------|---------------------|
|------------------------|---------------------|
|------------------------|---------------------|
|-14-----------9b10------|----12-10-9-7-5-7--9-|
|----12----12---------10-|-10------------------|
|-------12---------------|---------------------|
|
|  E  E  E  E  Q.      E    E  E  E E E E E  E
|------------------------|---------------------|
|------------------------|---------------------|
|------------------------|---------------------|
|-14----------12b14r==10-|----12-10-9----------|
|----12----12------------|-10---------9-7-9-10-|
|-------12---------------|---------------------|


    S S S S S S S S S S S S S S S S   S S S S S S S S S S S S S S S
||----------------------------------|--------------------------------||
||o---------------------------------|-------------------------------o||
||----------------------------------|--------------------------------||
||----------5-5-----7-7-------------|--------------------------------||
||o-----7-7-----7-7-----7-7-8-8-7-7-|-----7-7-5-5-3-3-5-5-3-3-2-2---o||
||--5-5-----------------------------|-5-5-------------------------3--||


    S S S S S S S S S S S S S S S S   S S S S S S S S S S S S S S S S
||----------------------------------|---------------------------------||
||o---------------------------------|--------------------------------o||
||----------------------------------|---------------------------------||
||----------------------------------|---------------------------------||
||o---------------------------------|--------------------------------o||
||--1-1-1-1-4-4-4-4-4-4-4-4-3-3-4-4-|-4-4-4-4-1-1-3-3-4-4-3-3-1-1-4-4-||


    S S S S S S S S S S S S S S S S   S S S S S S S S S S S S S S S S
||----------------------------------|---------------------------------||
||o---------------------------------|--------------------------------o||
||----------------------------------|---------------------------------||
||----------5-5-----7-7-------------|---------------------------------||
||o-----7-7-----7-7-----7-7-8-8-7-7-|-----7-7-5-5-3-3-5-5-3-3-2-2----o||
||--5-5-----------------------------|-5-5-------------------------3-3-||


   W                        H      H
|------------------------|------------------|
|------------------------|------------------|
|------------------------|------------------|
|--2---------------------|------------------|
|--0---------------------|--5------3--------|
|------------------------|--3------1--------|
|
| Gtr III
|  E  E  E  E  Q.      E    Q   Q  E E E  E
|------------------------|------------------|
|------------------------|------------------|
|------------------------|------------------|
|-14----------12b14r==10-|-----12-----------|
|----12----12------------|-10---------------|
|-------12---------------|---------8-7-8-10-|
|
| Gtr IV
|  E  E  E  E  Q.      E    Q   Q  E E E  E
|------------------------|------------------|
|------------------------|------------------|
|------------------------|------------------|
|-14----------12b14r==10-|-----12-----------|
|----12----12------------|-10---------------|
|-------12---------------|---------8-7-8-10-|


   W                        H         H
|------------------------|---------------------|
|------------------------|---------------------|
|------------------------|---------------------|
|--2---------------------|---------------------|
|--0---------------------|--5---------3--------|
|------------------------|--3---------1--------|
|
|  E  E  E  E  Q.      E    E  E  E E E E E  E
|------------------------|---------------------|
|------------------------|---------------------|
|------------------------|---------------------|
|-14----------12b14r==10-|----12-10-9----------|
|----12----12------------|-10------------------|
|-------12---------------|------------8-7-8-10-|
|
|  E  E  E  E  Q.      E    E  E  E E E E E  E
|------------------------|---------------------|
|------------------------|---------------------|
|------------------------|---------------------|
|-14----------12b14r==10-|----12-10-9----------|
|----12----12------------|-10------------------|
|-------12---------------|------------8-7-8-10-|


   W                        H      H
|------------------------|------------------|
|------------------------|------------------|
|------------------------|------------------|
|--2---------------------|------------------|
|--0---------------------|--5------3--------|
|------------------------|--3------1--------|
|
|  E  E  E  E  Q.      E    Q   Q  E E E  E
|------------------------|------------------|
|------------------------|------------------|
|------------------------|------------------|
|-14-----------9b10------|-----12-----------|
|----12----12---------10-|-10---------------|
|-------12---------------|---------8-7-8-10-|
|
|  E  E  E  E  Q.      E    Q   Q  E E E  E
|------------------------|------------------|
|------------------------|------------------|
|------------------------|------------------|
|-14----------12b14r==10-|-----12-----------|
|----12----12------------|-10---------------|
|-------12---------------|---------8-7-8-10-|


   W                        H         E E Q
|------------------------|---------------------|
|------------------------|---------------------|
|------------------------|---------------------|
|--2---------------------|---------------------|
|--0---------------------|--5---------2--------|
|------------------------|--3---------0--------|
|
|  E  E  E  E  Q.      E    E  E  E E E E E  E
|------------------------|---------------------|
|------------------------|---------------------|
|------------------------|---------------------|
|-14-----------9b10------|----12-10-9-7-5-7--9-|
|----12----12---------10-|-10------------------|
|-------12---------------|---------------------|
|
|  E  E  E  E  Q.      E    E  E  E E E E E  E
|------------------------|---------------------|
|------------------------|---------------------|
|------------------------|---------------------|
|-14----------12b14r==10-|----12-10-9----------|
|----12----12------------|-10---------9-7-9-10-|
|-------12---------------|---------------------|


                  9/4
  Gtr I
  E E E E E E Q    S S S S E E E S S S S E E E S S S S S S S S S S Q.
|----------------|------------------------------------------------------|
|----------------|------------------------------------------------------|
|----------------|------------------------------------------------------|
|-2--------------|------------------------------------------------------|
|-0---2-3-2-0-2--|---------3-3-3---------2-2-2-0-0-2-2-3-3-2-2-0-0-2----|
|----------------|-1-1-1-1-------0-0-0-0--------------------------------|
|
| Gtr II
| E E E E E E Q    S S S S E E E S S S S E E E S S S S S S S S S S Q.
|----------------|------------------------------------------------------|
|----------------|------------------------------------------------------|
|----------------|------------------------------------------------------|
|-2--------------|------------------------------------------------------|
|-0---2-3-2-0----|---------3-3-3---------2-2-2-0-0-2-2-3-3-2-2-0-0------|
|-------------3--|-1-1-1-1-------0-0-0-0---------------------------3----|


  S S S S E E E S S S S E E E S S S S E E E E Q
|------------------------------------------------|
|------------------------------------------------|
|------------------------------------------------|
|-------------------------------------2-0--------|
|---------3-3-3---------2-2-2-------------3-2-2--|
|-1-1-1-1-------0-0-0-0-------3-3-3-3------------|
|
| S S S S E E E S S S S E E E S S S S E E E E Q
|------------------------------------------------|
|------------------------------------------------|
|------------------------------------------------|
|-------------------------------------2-0--------|
|---------3-3-3---------2-2-2-------------3-2----|
|-1-1-1-1-------0-0-0-0-------3-3-3-3---------3--|


                                            4/4
  S S S S E E E E E S S S S E E E E E H      S S S S E E E E E S S
|------------------------------------------|-----------------------|
|------------------------------------------|-----------------------|
|------------------------------------------|-----------------------|
|------------------------------------------|-----------------------|
|---------3-5-3-2---3-2-------3-2-0---2----|---------3-5-3-2---3-2-|
|-1-1-1-1---------3-----3-5-0-------3------|-1-1-1-1---------3-----|
|
| S S S S E E E E E S S S S E E E E E H      S S S S E E E E E S S
|------------------------------------------|-----------------------|
|------------------------------------------|-----------------------|
|------------------------------------------|-----------------------|
|------------------------------------------|-----------------------|
|---------3-5-3-2---3-2---0---3-2-0--------|---------3-5-3-2---3-2-|
|-1-1-1-1---------3-----3---0-------3-3----|-1-1-1-1---------3-----|


  Q=105
  Gtrs I, II
  E    S S S  S S S +H         E   S S  S S S S S    E S S E.
|----------------------------|----------------------------------|
|----------------------------|----------------------------------|
|----------------------------|----------------------------------|
|-2----2-2-2--2-2-3-(3)------|----------------------------------|
|-0----0-0-0--0-0-3-(3)------|-5---5-5--5-5-5-3-2----0-3-2-0----|
|----------------------------|-3---3-3--3-3-3-------------------|
|
| Gtrs III, IV
|                    ~~~~~
| S S  S S S  S E    H         E E   S  S S S S E.     S S S  E
|-8-7------8-10-----10b12----|-5-7---8-10-8-7-8-8b10r==7-7-8--7-|
|-----10-8-------------------|----------------------------------|
|----------------------------|----------------------------------|
|----------------------------|----------------------------------|
|----------------------------|----------------------------------|
|----------------------------|----------------------------------|


   E     S  S  S  S  S  S +H
|--------------------------------------|
|--------------------------------------|
|--------------------------------------|
|--2-----2--2--2--2--2--3-(3)----------|
|--0-----0--0--0--0--0--3-(3)----------|
|--------------------------------------|
|
|  E     T  T  T  T  T  T  T   T  T  H
|-10b12-15-12-15-12-15-12-15--12-15-17-|
|--------------------------------------|
|--------------------------------------|
|--------------------------------------|
|--------------------------------------|
|--------------------------------------|


  Gtr I
   E  S  S  S  S  S  S  S  E    S  S  E.
|------------------------------------------|
|------------------------------------------|
|------------------------------------------|
|------------------------------------------|
|--5--5--5--5--5--5--3--2--0----3--2--0----|
|--3--3--3--3--3--3------------------------|
|
| Gtr II
|  E  S  S  S  S  S  S  S  E    S  S  E.
|------------------------------------------|
|------------------------------------------|
|------------------------------------------|
|------------------------------------------|
|--5--5--5--5--5--5--3--2--0----3--2--0----|
|--3--3--3--3--3--3------------------------|
|
| Gtrs III, IV
|  E  S  S  S  S  S  S  T  T  T S  S  S  E
|-17-15-12-15-12-10-12-10h12p10-8-10-10--8-|
|------------------------------------------|
|------------------------------------------|
|------------------------------------------|
|------------------------------------------|
|------------------------------------------|


   E     E      E     E      E     E        +Q
|------------------------------------------------|
|------------------------------------------------|
|------------------------------------------------|
|--------2------0--------------------------------|
|---------------------3------2-----2--------(2)--|
|--3---------------------------------------------|
|
|  E     E      E     E      E     E        +Q
|------------------------------------------------|
|------------------------------------------------|
|------------------------------------------------|
|--------2------0--------------------------------|
|---------------------3------2-------------------|
|--3-------------------------------3--------(3)--|
|
|  S  S  S  S  +S   E    S  +S   E    S     +Q
|----------15-(15)-14---12-(12)------------------|
|-13-12-10----------------------13---13b15-(13)--|
|------------------------------------------------|
|------------------------------------------------|
|------------------------------------------------|
|------------------------------------------------|


   E     E     E     E     E     E    +E     S  S
|-------------------------------------------------|
|-------------------------------------------------|
|-------------------------------------------------|
|-------------------------------------------------|
|--------3-----5-----3-----2-----------------3--2-|
|--0-----------------------------3----(3)---------|
|
|  E     E     E     E     E     E    +E     S  S
|-------------------------------------------------|
|-------------------------------------------------|
|-------------------------------------------------|
|-------------------------------------------------|
|--------3-----5-----3-----2-----------------3--2-|
|--0-----------------------------3----(3)---------|
|
|  S  S  S  S  S  S  S  S  S  S  S  S  S   S S  S
|-------------------------------------------------|
|-15-15-15-15-15-15-15-15-15-13-12-13-12--10-8-10-|
|-------------------------------------------------|
|-------------------------------------------------|
|-------------------------------------------------|
|-------------------------------------------------|


   E    E E E  E  E    +Q      E      E E E E E +E  S S
|---------------------------|----------------------------|
|---------------------------|----------------------------|
|---------------------------|----------------------------|
|-------2-0-----------------|----------------------------|
|-----------3--2--2----(2)--|---------3-5-3-2-------3-2--|
|--3------------------------|--0--------------3-(3)------|
|
|  E    E E E  E  E    +Q      E      E E E E E +E  S S
|---------------------------|----------------------------|
|---------------------------|----------------------------|
|---------------------------|----------------------------|
|-------2-0-----------------|----------------------------|
|-----------3--2------------|---------3-5-3-2-------3-2--|
|--3--------------3----(3)--|--0--------------3-(3)------|
|
|  H           E  S  S  Q      W
|---------------------------|----------------------------|
|-------------12-13-12-10---|----------------------------|
|-12b14---------------------|----------------------------|
|---------------------------|-14b14.5r===================|
|---------------------------|----------------------------|
|---------------------------|----------------------------|


  Gtrs I, II
   E S S S S S S +H             E  S  S  S  S  S  S  S  E  S  S E.
|----------------------------|--------------------------------------|
|----------------------------|--------------------------------------|
|----------------------------|--------------------------------------|
|--2-2-2-2-2-2-3-(3)---------|--------------------------------------|
|--0-0-0-0-0-0-3-(3)---------|--5--5--5--5--5--5--3--2--0--3--2-0---|
|----------------------------|--3--3--3--3--3--3--------------------|
|
| Gtrs III, IV
|  H              S   S E Q     E  S  E  S  S  S  Q  T  T  T  E
|----------------------------|--------------------------------------|
|----------------15--17------|-18-17-15-17-18-17-15-12-13-12-10-----|
|-17-------------------------|--------------------------------------|
|----------------------------|--------------------------------------|
|----------------------------|--------------------------------------|
|----------------------------|--------------------------------------|


   E     S S  S  S  S  S +H
|-----------------------------------------|
|-----------------------------------------|
|-----------------------------------------|
|--2-----2-2--2--2--2--3-(3)--------------|
|--0-----0-0--0--0--0--3-(3)--------------|
|-----------------------------------------|
|
|  T  T  T E  E  S  S  S  S   S  E  S  S
|-----------------------------------------|
|-10-12-10-8-13-12-10-15-13--12-17-15-13--|
|-----------------------------------------|
|-----------------------------------------|
|-----------------------------------------|
|-----------------------------------------|


   E     S S  S  S  S  S  S  E    S  S    E.
|--------------------------------------------|
|--------------------------------------------|
|--------------------------------------------|
|--------------------------------------------|
|--5-----5-5--5--5--5--3--2--0----3--2----0--|
|--3-----3-3--3--3--3------------------------|
|
|  S  S  E    S  S  S  S  S  S  E    Q
|-----------------------------------15b17----|
|-15-13-17---17-17-17-17-17-15-17------------|
|--------------------------------------------|
|--------------------------------------------|
|--------------------------------------------|
|--------------------------------------------|


                    Q=120
    H.      E E     S S S S S S S S S S S S S S S S
|---------------||-----------------------------------|
|---------------||o----------------------------------|
|---------------||-----------------------------------|
|---2-------2-3-||----------3-3-3-3-----3-3-2-2------|
|---0-------0-1-||o-1-1-1-1---------1-1---------4-4--|
|---------------||-----------------------------------|
|
|   W               W
|-(17)----------||-----------------------------------|
|---------------||o----------------------------------|
|---------------||-----------------------------------|
|---------------||-----------------------------------|
|---------------||o----------------------------------|
|---------------||-----------------------------------|


  S S S S S S S S S S S S S S S S   S S S S S S S S S S S S S S S S
|---------------------------------|---------------------------------|
|---------------------------------|---------------------------------|
|---------------------------------|---------------------------------|
|-----------------------------6-6-|---------------------------------|
|---------8-8---------7-7-8-8-----|---------------------------------|
|-6-6-6-6-----6-6-5-5-------------|-1-1-1-1-0-0-1-1-0-0-1-1-3-3-4-4-|


  S S S S S S S S S S S S S S S S
|----------------------------------||
|---------------------------------o||
|----------------------------------||
|----------------------------------||
|---------------------------------o||
|-1-1-1-1-0-0-1-1-0-0-1-1-3-3-4-4--||
|
| Gtrs III, IV
| W
|----------------------------------||
|---------------------------------o||
|----------------------------------||
|----------------------------------||
|---------------------------------o||
|----------------------------------||


   W                        H      H
|------------------------|-------------------|
|------------------------|-------------------|
|------------------------|-------------------|
|------------------------|-------------------|
|--7---------------------|--5------3---------|
|--5---------------------|--3------1---------|
|
|  E  E  E  E  Q.      E    Q   Q  E E E  E
|------------------------|-------------------|
|------------------------|-------------------|
|------------------------|-------------------|
|-14----------12b14r==10-|-----12------------|
|----12----12------------|-10----------------|
|-------12---------------|---------8-7-8-10--|


   W                        H         H
|------------------------|---------------------|
|------------------------|---------------------|
|------------------------|---------------------|
|--2---------------------|---------------------|
|--0---------------------|--5---------3--------|
|------------------------|--3---------1--------|
|
|  E  E  E  E  Q.      E    E  E  E E E E E  E
|------------------------|---------------------|
|------------------------|---------------------|
|------------------------|---------------------|
|-14----------12b14r==10-|----12-10-9----------|
|----12----12------------|-10------------------|
|-------12---------------|------------8-7-8-10-|


   W                        H      H
|------------------------|------------------|
|------------------------|------------------|
|------------------------|------------------|
|--2---------------------|------------------|
|--0---------------------|--5------3--------|
|------------------------|--3------1--------|
|
|  E  E  E  E  Q.      E    Q   Q  E E E  E
|------------------------|------------------|
|------------------------|------------------|
|------------------------|------------------|
|-14----------12b14r==10-|-----12-----------|
|----12----12------------|-10---------------|
|-------12---------------|---------8-7-8-10-|


   W                        H         E E Q
|------------------------|-------------------|
|------------------------|-------------------|
|------------------------|-------------------|
|--2---------------------|-------------------|
|--0---------------------|--5---------2------|
|------------------------|--3---------0------|
|
| Gtr III
|  E  E  E  E  Q.      E    E  E  E E
|------------------------|-------------------|
|------------------------|-------------------|
|------------------------|-------------------|
|-14----------12b14r==10-|----12-10-9--------|
|----12----12------------|-10----------------|
|-------12---------------|-------------------|
|
| Gtr IV
|  E  E  E  E  Q.      E    E  E  E E
|------------------------|-------------------|
|------------------------|-------------------|
|------------------------|-------------------|
|-14----------12b14r==10-|----12-10-9--------|
|----12----12------------|-10----------------|
|-------12---------------|-------------------|


   W                      H        H
|----------------------|--------------------|
|----------------------|--------------------|
|----------------------|--------------------|
|--2-------------------|--------------------|
|--0-------------------|--3--------5--------|
|----------------------|--1--------3--------|
|
|  E  E  E  E  E  Q.      E  Q   Q    E  Q
|----------------------|--------------------|
|----------------------|--------------------|
|----------------------|--------------------|
|-10--9--7--9-10-10----|--9-10---7----9-10--|
|----------------------|--------------------|
|----------------------|--------------------|
|
|  E  E  E  E  E  Q.      E  Q   Q    E  Q
|----------------------|--------------------|
|----------------------|--------------------|
|----------------------|--------------------|
|-14-12-10-12-14-14----|-12-14--10---12-14--|
|----------------------|--------------------|
|----------------------|--------------------|


   W                     H     H
|---------------------|------------------|
|---------------------|------------------|
|---------------------|------------------|
|--2------------------|------------------|
|--0------------------|--5-----3---------|
|---------------------|--3-----1---------|
|
|  ~~                    ~~
|  H     S  S  E  E E    H     E E  E  E
|---------------------|------------------|
|---------------------|------------------|
|--9-----9-11--9--7-5-|------------------|
|---------------------|--9-----7-5--7--9-|
|---------------------|------------------|
|---------------------|------------------|
|
|  ~~                    ~~
|  H     S  S  E  E E    H     E E  E  E
|---------------------|------------------|
|---------------------|------------------|
|-12----12-14-12-11-9-|------------------|
|---------------------|-12----10-9-10-12-|
|---------------------|------------------|
|---------------------|------------------|


   W                  H      H
|-------------------|------------------|
|-------------------|------------------|
|-------------------|------------------|
|--2----------------|------------------|
|--0----------------|-3------5---------|
|-------------------|-1------3---------|
|
|              ~~        ~~
|  E  E  E  E  H      E  H      +Q.
|-------------------|------------------|
|-------------------|------------------|
|--9--7-------------|------------------|
|-------10--9--7----|-5--7------(7)----|
|-------------------|------------------|
|-------------------|------------------|
|
|              ~~        ~~
|  E  E  E  E  H      E  H      +Q.
|-------------------|------------------|
|-------------------|------------------|
|-12-11-------------|------------------|
|-------14-12-10----|-9-10-----(10)----|
|-------------------|------------------|
|-------------------|------------------|


  W               H            H       H         S S S S S S S S
|--------------|--------------------|-----------------------------|
|--------------|--------------------|-----------------------------|
|--------------|--------------------|-----------------------------|
|-2------------|--------------------|--2--------------------------|
|-0------------|--5------------3----|--0---------0-0-0-0-2-2-3-3--|
|--------------|--3------------1----|-----------------------------|
|
|         ~~
| Q   Q   H       S  S  E  E E H       E E  E  E H
|--------------|--------------------|-----------------------------|
|--------------|--------------------|-----------------------------|
|---------9----|--9h11p=9--7-5------|-----------------------------|
|-5---7--------|---------------5----|--7-5--7--9------------------|
|--------------|--------------------|-----------------------------|
|--------------|--------------------|-----------------------------|
|
|         ~~
| Q   Q   H       S  S  E  E E H       E E  E  E H
|--------------|--------------------|-----------------------------|
|--------------|--------------------|-----------------------------|
|--------12----|-12h14p12-11-9------|-----------------------------|
|-9--10--------|---------------9----|-10-9-10-12------------------|
|--------------|--------------------|-----------------------------|
|--------------|--------------------|-----------------------------|


  S S S S S E.  S E Q
|------------------------*|
|------------------------*|
|------------------------*|
|------------------------*|
|-2-2-0-0-5-7\-----------*|
|---------3-5\-----------*|




Tablature Legend
----------------
 h   - hammer-on
 p   - pull-off
 b   - bend
 pb  - pre-bend
 r   - bend release (if no number after the r, then release immediately)
 /\  - slide into or out of (from/to "nowhere")
 s   - legato slide
 S   - shift slide
<n> - natural harmonic
[n]  - artificial harmonic
n(n) - tapped harmonic
 ~   - vibrato
 tr  - trill
 T   - tap
 TP  - trem. picking
 PM  - palm muting
\n/  - tremolo bar dip; n = amount to dip
 \n  - tremolo bar down
 n/  - tremolo bar up
/n\  - tremolo bar inverted dip
 =   - hold bend; also acts as connecting device for hammers/pulls
 <> - volume swell (louder/softer)
 x   - on rhythm slash represents muted slash
 o   - on rhythm slash represents single note slash

Misc Legend
-----------
 |  - bar
||  - double bar
||o - repeat start
o|| - repeat end
*|  - double bar (ending)
 :  - bar (freetime)
 $  - Segno
 &  - Coda

  Visit MetalTabs.com for more metal tablature

bottom separator

Contact Us | Privacy Policy | Disclaimer | Legal Notice
Copyright © 2001-2014 MetalTabs.com. All Rights Reserved.