top separator

Home

Forum

What's New

Submit a Tab

FAQ

Links

Contact Us

Link to Us

MuSpy.com

MetalTabs.com logo

Bands

0-9

A

B

C

D

E

F

G

H

I

J

K

L

M

N

O

P

Q

R

S

T

U

V

W

X

Y

Z

Search

What

Where
 

Dismember - "Hate Campaign" Guitar Tab

Plain Text Version
More Dismember Tabs

Hits: 2052
Rated: 5.00 out of 5 (1 vote)
Updated: 2006-11-04 00:06:03

 

By:

Cannibal Carcass

sendpm.gif

email.gif

Important note
This tab is available online because we obtained explicit permission from Dismember or their label.


#----------------------------------PLEASE NOTE---------------------------------#
#This file is the author's own work and represents their interpretation of the #
#song. You may only use this file for private study, scholarship, or research. #
#Unless specified otherwise, this is NOT an official tab from the band members.#
#------------------------------------------------------------------------------#

  Visit MetalTabs.com for more metal tablature
  
This was the first death metal song I ever heard. It is an awesome
song, and also the first song I ever tabbed out. Solo is at the bottom.





Band:  Dismember
Album: Hate Campaign
Song:  Hate Campaign

Copyright (c)  Nuclear Blast 2000
Version 1.1 - 2006

Transcribed By: Cannibal Carcass
Email:          Cannibal764@yahoo.com


.  - palm mute           /  - slide up to
\  - slide down to       ~  - vibrato
h  - hammer on           b  - Bend
p  - pull off            Suffixes for bend
t  - tap                 f  - full bend    h - half bend
ph - pinched harmonic    q  - quarter bend t - tap bend
*  - see comment         ^  - Hold bend    r release bend
x  - Stuccatto           ~  - vibrato bend
,  - slight palm mute    () - ghost note, sustained note
"  - tremolo note        <> - Trill

Tuning C F A# D# G C

This was the first death metal song I ever heard, and also the first
song I ever tabbed out. Solo is at the bottom.


INTRO:
C |--------------------------------------||------------------------------------|
G |--------------------------------------||------------------------------------|
D#|--------------------------------------||------------------------------------|
A#|--------------------------------------||------------------------------------|
F |-6-5-3-2------------------------------||-X\\--------------------------------|
C |-4-3-1-0------------------------------||-X\\--------------------------------|


RIFF 1:
C |--------------------------------------|
G |--------------------------------------|
D#|--------------------------------------|
A#|--------------------------------------|
F |-2-----2--------3-----3---------------|
C |-0-000-0--3^-1--1-000-1-4-3-1---------| X4
      ...            ...



RIFF 2:
C |--------------------------------------||--------------------------------|
G |--------------------------------------||--------------------------------|
D#|--------------------------------------||--------------------------------|
A#|--------------------------------------||--------------------------------|
F |-2--2--2------------------------------||-3--3--2-3----------------------|
C |-0--0--0--7h8p7-4-7-------------------||-1--1--0-1--8p5p4---------------| X 4



RIFF 1 X4
RIFF 2 X2


CHORUS:
C |--------------------------------------||------------------------------------|
G |--------------------------------------||------------------------------------|
D#|--------------------------------------||------------------------------------|
A#|--------------------------------------||------------------------------------|
F |-2--2-2--2--2-2--2--2-2--2--2---------||-2--2-2--2--2-2--2--2-2--2--2-------|
C |-0--0-0--0--0-0--0--0-0--0--0-1-------||-0--0-0--0--0-0--0--0-0--0--0-1-----|

C |--------------------------------------||------------------------------------|
G |--------------------------------------||------------------------------------|
D#|--------------------------------------||------------------------------------|
A#|--------------------------------------||------------------------------------|
F |-6--5-5--6--5-5--2--2-2--2--2---------||-6--5-5--6--5-5--2--2-2--2--2-------|
C |-4--3-3--4--3-3--0--0-0--0--0-1-------||-4--3-3--4--3-3--0--0-0--0--0-1-----|

C |--------------------------------------||------------------------------------|
G |--------------------------------------||------------------------------------|
D#|--------------------------------------||------------------------------------|
A#|--------------------------------------||------------------------------------|
F |-2--2-2--2--2-2--2--2-2--2--2-3-3-----||-2--2-2--2--2-2--2--2-2--2--2-------|
C |-0--0-0--0--0-0--0--0-0--0--0-1-1-----||-0--0-0--0--0-0--0--0-0--0--0-1-----|
                                 . .
C |--------------------------------------||------------------------------------|
G |--------------------------------------||------------------------------------|
D#|--------------------------------------||------------------------------------|
A#|--------------------------------------||------------------------------------|
F |-6--5-5--6--5-5--2--2-2--2--2---------||-6--5-5--6--5-5--2--2-2--2--2-------|
C |-4--3-3--4--3-3--0--0-0--0--0-1-------||-4--3-3--4--3-3--0--0-0--0--0-1-----|


RIFF 2 X4
<FEEDBACK>
CHORUS X 1


RIFF 3:
C |--------------------------------------|
G |--------------------------------------|
D#|--------------------------------------|
A#|--------------------------------------|
F |-2--2--2--7-9-10--9-7--------5--5-4---|
C |-0--0--0---------------7^-7--3--3-2---| X17

play above twice, then start SOLO over it.

RIFF 3b:
C |--------------------------------------|
G |--------------------------------------|
D#|--------------------------------------|
A#|--------------------------------------|
F |-2--2--2--7-9-10--9-7--------5-5-5----|
C |-0--0--0---------------7^-7--3-3-3----|
					    . .
C |--------------------------------------|
G |--------------------------------------|
D#|--------------------------------------|
A#|--------------------------------------|
F |-4-4-4--2-2-2-2-----------------------|
C |-2-2-2--0-0-0-0-----------------------|
    . .    . . .


SOLO:
C |--------------------------------------||------------------------------------|
G |--------------------------------------||------------------------------------|
D#|-------------------16--12h14p12-------||-12--11-16-14-12-11-12--------------|
A#|-17--16--14-13-14---------------------||------------------------9-9--9~-----|
F |--------------------------------------||------------------------------------|
C |--------------------------------------||------------------------------------|

C |---------------------------------||-14^--12~~~~-15-14--19--19p17-17p15-14-12|
G |----------------12-10-12p10-8-7--||-----------------------------------------|
D#|-12-12p11p9-9--------------------||-----------------------------------------|
A#|---------------------------------||-----------------------------------------|
F |---------------------------------||-----------------------------------------|
C |---------------------------------||-----------------------------------------|

C |--------------------------------------||------------------------------------|
G |--------------------------------------||------------------------------------|
D#|--------------------------------------||------------------------------------|
A#|-14-16-17--14-16-17--14-16-17--14-17~-||-19\--------------------------------|
F |--------------------------------------||------------------------------------|
C |--------------------------------------||------------------------------------|

C |--------------------------------------------||------------------------------|
G |--------------------------------------------||------------------------------|
D#|--------------------------------------------||-16--14h16-14h16--------------|
A#|-17--17-17-16-14--16^-14-16--16p14p16p14-13-||-----------------16h17p16-14--|
F |--------------------------------------------||------------------------------|
C |--------------------------------------------||------------------------------|

C |--------------------------------------||------------------------------------|
G |-17-1919202019191717191917171616------||------------------------------------|
D#|--------------------------------------||--161617171616161621216161616-------|
A#|--------------------------------------||------------------------------------|
F |--------------------------------------||------------------------------------|
C |--------------------------------------||------------------------------------|

C |--------------------------------------||------------------------------------|
G |--------------------------------------||------------------------------------|
D#|--------------------------------------||------------------------------------|
A#|-17-16-17-19^----17-16-17-17-14-------||------------------------------------|
F |--------------------------------------||-------------12-10-12-10-14-12------|
C |--------------------------------------||-\/-12-14-15------------------------|

C |--------------------------------------------|
G |--------------------------------------------|
D#|--------------------------------------------|
A#|--------------------------------------------|
F |-15p14-14--15p14-14--15p14-14/15/19\15p14-14|
C |--------------------------------------------|

C |--------------------------------------|
G |--------------------------------------|
D#|--------------------------------------|
A#|--------------------------------------|
F |-15p14h15p14h15p14h15p14h15p14h15p14h-|
C |--------------------------------------|



C |------------------------------------||--------------------------------------|
G |--------------17-16-17--------------||--17p16h17p16h17p16h17p16h17p16h17p16h|
D#|-----------------------17\/---------||--------------------------------------|
A#|------------------------------------||--------------------------------------|
F |-15-19-141414-----------------------||--------------------------------------|
C |------------------------------------||--------------------------------------|
									Repeat this to the end...

  Visit MetalTabs.com for more metal tablature

bottom separator

Contact Us | Privacy Policy | Disclaimer | Legal Notice
Copyright © 2001-2014 MetalTabs.com. All Rights Reserved.