top separator

Home

Forum

What's New

Submit a Tab

FAQ

Links

Contact Us

Link to Us

MuSpy.com

MetalTabs.com logo

Bands

0-9

A

B

C

D

E

F

G

H

I

J

K

L

M

N

O

P

Q

R

S

T

U

V

W

X

Y

Z

Search

What

Where
 

Agathocles - "Chop Off Their Genitals" Guitar Tab

Plain Text Version
More Agathocles Tabs

Hits: 2055
Updated: 2006-11-03 23:45:09

 

By:

aXeBastard

sendpm.gif

email.gif

Important note
This tab is available online because we obtained explicit permission from Agathocles or their label.


#----------------------------------PLEASE NOTE---------------------------------#
#This file is the author's own work and represents their interpretation of the #
#song. You may only use this file for private study, scholarship, or research. #
#Unless specified otherwise, this is NOT an official tab from the band members.#
#------------------------------------------------------------------------------#

  Visit MetalTabs.com for more metal tablature
  
Band:  Agathocles
Album: Superiority Overdose
Song:  Chop Off Their Genitals

Copyright (c)  Uxicon Records 2001
Version 1.0 - 19/10/06

Transcribed By: aXeBastard
Email:          Smashed_Face@msn.com


.  - palm mute           /  - slide up to
\  - slide down to       ~  - vibrato
h  - hammer on           b  - Bend
p  - pull off            Suffixes for bend
t  - tap                 f  - full bend    h - half bend
ph - pinched harmonic    q  - quarter bend t - tap bend
*  - see comment         ^  - Hold bend    r release bend
x  - Stuccatto           ~  - vibrato bend
,  - slight palm mute    () - ghost note, sustained note
"  - tremolo note        <> - Trill

Tuning : Standard B

|------------------------------------------------------|
|------------------------------------------------------|
|------------------------------------------------------|
|------------------------------------------------------|
|--4-----------5-----------7---------------9--8--7--8--|
|--2--2-2-2-2--3--2-2-2-2--5--2-2-2-2-2-2--7--6--5--6--|
      . . . .     . . . .     . . . . . .

|---------------|----------|
|---------------|-Play-3rd-|
|---------------|---time---|
|---------------|----------|
|--4--5---9--8--|--7---8---|
|--2--3---7--6--|--5---6---|


|-----|
|-----|Fill riff
|-----|   and
|-----|Finishing
|--4--|  Riff
|--2--|

END

  Visit MetalTabs.com for more metal tablature

bottom separator

Contact Us | Privacy Policy | Disclaimer | Legal Notice
Copyright © 2001-2014 MetalTabs.com. All Rights Reserved.