top separator

Home

Forum

What's New

Submit a Tab

FAQ

Links

Contact Us

Link to Us

MetalTabs.com logo

Bands

0-9

A

B

C

D

E

F

G

H

I

J

K

L

M

N

O

P

Q

R

S

T

U

V

W

X

Y

Z

Search

What

Where
 

Rebaelliun - "The Legacy Of Eternal Wrath" Guitar Tab

Plain Text Version
More Rebaelliun Tabs

Hits: 1683
Rated: 3.00 out of 5 (1 vote)
Updated: 2006-11-03 22:39:02

 

By:

Tjaial

sendpm.gif

email.gif

Important note
We did our best to reach Rebaelliun and ask for their permission to publish this tab. Unfortunately they did not respond to our requests or we could not find a way to contact them. This tab is available online until Rebaelliun tells us to take it down.


#----------------------------------PLEASE NOTE---------------------------------#
#This file is the author's own work and represents their interpretation of the #
#song. You may only use this file for private study, scholarship, or research. #
#Unless specified otherwise, this is NOT an official tab from the band members.#
#------------------------------------------------------------------------------#

  Visit MetalTabs.com for more metal tablature
  
Band:  Rebealliun
Album: Burn The Promised Land
Song:  The Legacy Of Eternal Wrath

Transcribed By: Tjaial
Email:          Tjaial@aol.com
Copyright (c)   HammerHeart

.  - palm mute           /  - slide up to
\  - slide down to       ~  - vibrato
h  - hammer on           b  - Bend
p  - pull off            Suffixes for bend
t  - tap                 f  - full bend    h - half bend
ph - pinched harmonic    q  - quarter bend t - tap bend
*  - see comment         ^  - Hold bend    r release bend
x  - Stuccatto           ~  - vibrato bend
,  - slight palm mute    () - ghost note, sustained note
"  - tremolo note        <> - Trill

Tune to Eb

LISTEN to the song for timing AND how to play

riff 1 (00:00)x7
|------------------------------------------------------------|
|------------------------------------------------------------|
|------------------------------------------------------------|
|------------------------------------------------------------|
|----7h8---7h8---7h8-6h7-5h6----7h8---7h8---7h8-6h7-5h6-4h5--|
|-000---000---000------------000---000---000-----------------|
  ...   ...   ...            ...   ...   ...

guitar 2 on the 4th time
|------------------------------------------------------------------|
|------------------------------------------------------------------|
|------------------------------------------------------------------|
|----9h10---9h10---9h10-8h9-7h8----9h10---9h10---9h10-8h9-7h8-6h7--|
|------------------------------------------------------------------|
|-000----000----000-------------000----000----000------------------|
  ...    ...    ...             ...    ...    ...
riff 2 (00:26)x4
|------------------------------------------------------------|
|------------------------------------------------------------|
|------------------------------------------------------------|
|------------------------------------------------------------|
|------------------------------------------------------------|
|-0"3"1"0"3"1"0"3"1"0"1"0"1"---------------------------------|

solo riff (00:38)x4
|------------------------------------------------------------|
|------------------------------------------------------------|
|------------------------------------------------------------|
|------------------------------------------------------------|
|-7---7---10---10---9---9---8---8----------------------------|
|--000-000--000--000-000-000-000-000-------------------------|
   ... ...  ...  ... ... ... ... ...
solo 1 (00:38)
|---------------------------------------------------|
|-18b-18b-18b-18b-17"18"20"18"17"18"\"15"12"--------|
|---------------------------------------------------|
|---------------------------------------------------|
|---------------------------------------------------|
|---------------------------------------------------|

|---------------------------------------------------|
|-12"/17"\12"-12"/17"\12"-12"/17"\12"-12"/17"\12"---|
|---------------------------------------------------|
|---------------------------------------------------|
|---------------------------------------------------|
|---------------------------------------------------|

|---------------------------------------------------|
|-12h15"-12"15"12"15"12"--11h14"-11"14"11"14"11"----|
|---------------------------------------------------|
|---------------------------------------------------|
|---------------------------------------------------|
|---------------------------------------------------|

|---------------------------------------------------|
|-10h13"-10"13"10"13"10"--9h12"-9"12"9"12"9"--------|
|---------------------------------------------------|
|---------------------------------------------------|
|---------------------------------------------------|
|---------------------------------------------------|

|---------------------------------------------------|
|---------------------------------------------------|
|---------9-11-12--12"14"15"-12"14"15"12"14"15"-----|
|-9-10-12-------------------------------------------|
|---------------------------------------------------|
|---------------------------------------------------|

|---------------------------------------------------|
|---------------------------------------------------|
|-11"13"14"-11"13"14"11"13"14"13"11"-9~-------------|
|---------------------------------------------------|
|---------------------------------------------------|
|---------------------------------------------------|

riff 1 (00:51)x3
on the 3rd time playing riff 1,end with            fill 1
|-------------------------------------------------|-----------|
|-------------------------------------------------|-----------|
|-------------------------------------------------|-----------|
|-------------------------------------------------|-----------|
|-7h8-6h7-5h6-4h5--7h8-6h7-5h6-4h5----------------|-----------|
|----------------------------------4h5-3h4-2h3-1h2|-0"-1"-3"--|

straight into riff 2 (01:05)x8

riff 3 (01:29)x8
|------------------------------------------------------------|
|------------------------------------------------------------|
|------------------------------------------------------------|
|-------------------------------2"-3"------------------------|
|-------------2"-3"----2"-3"-5"------------------------------|
|-0"-2"-3"-5"-------5"---------------------------------------|

riff 3.1 (01:56)x3                          fill 2
|------------------------------------------|------------------|
|------------------------------------------|------------------|
|------------------------------------------|------------------|
|----------3"----------------2"-3"-5"------|------------------|
|-2"-3"-5"----0"-3"-2"-3"-5"---------------|------------------|
|------------------------------------------|-0"-3"-2"-1"------|

solo riff (02:10)x4

change in solo riff (02:22)x4
|----------------------------------------------------------|
|----------------------------------------------------------|
|----------------------------------------------------------|
|----------------------------------------------------------|
|-2---2---5---5---4---4---3---3----------------------------|
|--000-000-000-000-000-000-000-000-------------------------|
   ... ... ... ... ... ... ... ...
solo 2(02:10)
|-------------12"-16"-12"-------------12"-16"-12"-16"-19-19~--|
|---------12"-------------12"-----12"-------------------------|
|-----13"---------------------13"-----------------------------|
|-14"---------------------------------------------------------|
|-------------------------------------------------------------|
|-------------------------------------------------------------|
|------------------------sweep part--------------|
|----------------------12h16p12----------------12-16-14-12-14-16-19--|
|-------------------12----------12----------12-----------------------|
|----------------13----------------13----13--------------------------|
|-------------14----------------------14-----------------------------|
|----------12--------------------------------------------------------|
|-12-14-15-----------------------------------------------------------|
              |-------sweep----------|
|-17-16-17-14-12-------------------12-16-19-16-19-16-17-19-17-19-17-19--|
|----------------12-------------12--------------------------------------|
|-------------------13-------13-----------------------------------------|
|----------------------14-14--------------------------------------------|
|-----------------------------------------------------------------------|
|-----------------------------------------------------------------------|
 |--------sweep----------|
|-12-------------------12-15-14-15-14-19-14-19-14-19-14-15-14-15-|
|----12-------------12-------------------------------------------|
|-------13-------13----------------------------------------------|
|----------14-14-------------------------------------------------|
|----------------------------------------------------------------|
|----------------------------------------------------------------|

this sort of thing, just make it last till solo riff 2 comes in
|14-19-14-19-14-19-14-19-14-19-14-15-14-19-14-12-------------|
|------------------------------------------------------------|
|------------------------------------------------------------|
|------------------------------------------------------------|
|------------------------------------------------------------|
|------------------------------------------------------------|

solo riff 2 comes in
|-15-10-15-10-15-10-14-10-14-10-14-10-15-10-15-10-15-10-14-10-14-10-14-10--|
|--------------------------------------------------------------------------|
|--------------------------------------------------------------------------|
|--------------------------------------------------------------------------|
|--------------------------------------------------------------------------|
|--------------------------------------------------------------------------|
                                                     |------sweep------|
|-15-10-15-10-15-10-14-10-14-10-14-10-15-10-15-10-15-12------------------|
|-------------------------------------------------------12---------------|
|----------------------------------------------------------13------------|
|-------------------------------------------------------------14---------|
|----------------------------------------------------------------14------|
|-------------------------------------------------------------------12~--|

|----------------------------------------------------------14----|
|----------------------------------------------15----17-15----17-|
|----------------------------14----16-14-17-16----17-------------|
|----------14----16-14-17-16----17-------------------------------|
|/14-17-16----17-------------------------------------------------|
|----------------------------------------------------------------|

|-15-14-17-15-19-17-21-19~-|
|--------------------------|
|--------------------------|
|--------------------------|
|--------------------------|
|--------------------------|

end of solo also riff 4 comes in at start of "23b"
|-23b----|
|--------|
|--------|
|--------|
|--------|
|--------|


riff 4 (02:35)x4
|-----------------------------------------------------|
|-----------------------------------------------------|
|-----------------------------------------------------|
|---------------------------------------------7-8-9---|
|----9h10---8h9---9h10---10h12---9h10---8h9---7-8-9---|
|-000----000---000----000-----000----000---000--------|
  ...    ...   ...    ...     ...     ...   ...
|--------------------------------------------------|
|--------------------------------------------------|
|--------------------------------------------------|
|---------------------------------------------7-8--|
|----9h10---8h9---9h10---10h12---9h10---8h9---7-8--|
|-000----000---000----000-----000----000---000-----|
  ...    ...   ...    ...     ...    ...   ...
riff 2 (03:00) bit faster x4
at end of riff 2 (fill 1)
|------------------|
|------------------|
|------------------|
|------------------|
|------------------|
|-0"-1"-3"---------|

solo 3 (03:13)


riff 2 (03:13)x9

riff 2.2 (03:40)x1
|-----------------------------------------------|
|-----------------------------------------------|
|-----------------------------------------------|
|-----------------------------------------------|
|-----------------------------------------------|
|-0"-3"-1"--0"-3"-1"--0"-3"-1"--1"-0"-1"--------|

riff 2 (03:43)x1
riff 2.2 (03:46)x1

end with
|-------------------|
|-------------------|
|-------------------|
|-------------------|
|---2---------------|
|---0---------------|
    .

  Visit MetalTabs.com for more metal tablature

bottom separator

Contact Us | Privacy Policy | Disclaimer | Legal Notice
Copyright © 2001-2014 MetalTabs.com. All Rights Reserved.