top separator

Home

Forum

FAQ

Contact Us

Link to Us

MetalTabs.com logo

Bands

0-9

A

B

C

D

E

F

G

H

I

J

K

L

M

N

O

P

Q

R

S

T

U

V

W

X

Y

Z

Black Label Society - "Faith Is Blind" Guitar Tab

Plain Text Version
More Black Label Society Tabs

Hits: 2279
Rated: 5.00 out of 5 (2 votes)
Updated: 2006-11-03 22:25:19

By:


#----------------------------------PLEASE NOTE---------------------------------#
#This file is the author's own work and represents their interpretation of the #
#song. You may only use this file for private study, scholarship, or research. #
#Unless specified otherwise, this is NOT an official tab from the band members.#
#------------------------------------------------------------------------------#

  Visit MetalTabs.com for more metal tablature
  
Artista: Black Label Society
Album: Shot to Hell
Titolo: Faith is blind
Tabbed by: Melo from Bullseye: Italian mother f**! BLS cover band...


Tuning: C  G  C  F  A  D

Intro:

  Pm................................................
|-----------------------------------------------------------|
|-----------------------------------------------------------|
|-----------------------------------------------------------|
|-----------------------------------------------------------|
|-0--0---0--0---0--0---0--0---0--0---0--0---0--0---0--0-----|
|-0--0---0--0---0--0---0--0---0--0---0--0---0--0---0--0-----|

  Pm......................................................
|----------------------------------------------------------------------------|
|----------------------------------------------------------------------------|
|----------------------------------------------------------------------------|
|----------------------------------------------------------------------------|
|----------------------------------------------------------------------------|
|-0-0-0-0-10-0-10-0-0-0-0-0-12-0-12-0-0-0-0-0-10-0-10-0-0-0-5^6--------------|

 Pm.......................................................
|----------------------------------------------------------------------------|
|----------------------------------------------------------------------------|
|----------------------------------------------------------------------------|
|----------------------------------------------------------------------------|
|----------------------------------------------------------------------------|
|-0-0-0-0-10-0-10-0-0-0-0-0-12-0-12-0-0-0-0-0-10-0-10-0-0-0-3^4--------------|

 Pm.......................................................
|----------------------------------------------------------------------------|
|----------------------------------------------------------------------------|
|----------------------------------------------------------------------------|
|----------------------------------------------------------------------------|
|----------------------------------------------------------------------------|
|-0-0-0-0-10-0-10-0-0-0-0-0-12-0-12-0-0-0-0-0-10-0-10-0-0-0-5^6--------------|

 Pm........................................................ H
|----------------------------------------------------------------------------|
|----------------------------------------------------------------------------|
|----------------------------------------------------------------------------|
|----------------------------------------------------------------------------|
|----------------------------------------------------------------------------|
|-0-0-0-0-10-0-10-0-0-0-0-0-12-0-12-0-0-0-0-0-10-0-10-0-0-0-3^4~~------------|

Strofa:

  Pm......................................................
|----------------------------------------------------------------------------|
|----------------------------------------------------------------------------|
|----------------------------------------------------------------------------|
|----------------------------------------------------------------------------|
|----------------------------------------------------------------------------|
|-0-0-0-0-10-0-10-0-0-0-0-0-12-0-12-0-0-0-0-0-10-0-10-0-0-0-5^6--------------|


 Pm.......................................................
|----------------------------------------------------------------------------|
|----------------------------------------------------------------------------|
|----------------------------------------------------------------------------|
|----------------------------------------------------------------------------|
|----------------------------------------------------------------------------|
|-0-0-0-0-10-0-10-0-0-0-0-0-12-0-12-0-0-0-0-0-10-0-10-0-0-0-3^4--------------|

 Pm.......................................................
|----------------------------------------------------------------------------|
|----------------------------------------------------------------------------|
|----------------------------------------------------------------------------|
|----------------------------------------------------------------------------|
|----------------------------------------------------------------------------|
|-0-0-0-0-10-0-10-0-0-0-0-0-12-0-12-0-0-0-0-0-10-0-10-0-0-0-5^6--------------|

Pm................................. Pick gliss....
|--------------------------------------------------|
|--------------------------------------------------|
|--------------------------------------------------|
|-------------------------------------/------------|
|------------------------------------/-------------|
|-0-0-0-0-10-0-10-0-0-0-0-0-12-0-12-/--------------|


Ritornello:
                                    X3                           pick gliss...
|--------------------------------------|-------------------------------------|
|--------------------------------------|-------------------------------------|
|--------------------------------------|-------------------------------------|
|--------------------------------------|----------------------------/--------|
|---------------3p0---8p5-5------------|---------------3p0---8p5-5-/---------|
|-3p0--05p0--5-----5-------7--5^6r5p0-|-3p0--05p0--5-----5------/----------|

Pre strofa:

Pm......................................................
|----------------------------------------------------------------------------|
|----------------------------------------------------------------------------|
|----------------------------------------------------------------------------|
|----------------------------------------------------------------------------|
|----------------------------------------------------------------------------|
|-0-0-0-0-10-0-10-0-0-0-0-0-12-0-12-0-0-0-0-0-10-0-10-0-0-0-5^6--------------|

 Pm.......................................................
|----------------------------------------------------------------------------|
|----------------------------------------------------------------------------|
|----------------------------------------------------------------------------|
|----------------------------------------------------------------------------|
|----------------------------------------------------------------------------|
|-0-0-0-0-10-0-10-0-0-0-0-0-12-0-12-0-0-0-0-0-10-0-10-0-0-0-3^4--------------|

 Pm.......................................................
|----------------------------------------------------------------------------|
|----------------------------------------------------------------------------|
|----------------------------------------------------------------------------|
|----------------------------------------------------------------------------|
|----------------------------------------------------------------------------|
|-0-0-0-0-10-0-10-0-0-0-0-0-12-0-12-0-0-0-0-0-10-0-10-0-0-0-5^6--------------|


Pm........................................................ H
|----------------------------------------------------------------------------|
|----------------------------------------------------------------------------|
|----------------------------------------------------------------------------|
|----------------------------------------------------------------------------|
|----------------------------------------------------------------------------|
|-0-0-0-0-10-0-10-0-0-0-0-0-12-0-12-0-0-0-0-0-10-0-10-0-0-0-3^4~~------------|

Strofa:

  Pm......................................................
|----------------------------------------------------------------------------|
|----------------------------------------------------------------------------|
|----------------------------------------------------------------------------|
|----------------------------------------------------------------------------|
|----------------------------------------------------------------------------|
|-0-0-0-0-10-0-10-0-0-0-0-0-12-0-12-0-0-0-0-0-10-0-10-0-0-0-5^6--------------|


Pm.......................................................
|----------------------------------------------------------------------------|
|----------------------------------------------------------------------------|
|----------------------------------------------------------------------------|
|----------------------------------------------------------------------------|
|----------------------------------------------------------------------------|
|-0-0-0-0-10-0-10-0-0-0-0-0-12-0-12-0-0-0-0-0-10-0-10-0-0-0-3^4--------------|

 Pm.......................................................
|----------------------------------------------------------------------------|
|----------------------------------------------------------------------------|
|----------------------------------------------------------------------------|
|----------------------------------------------------------------------------|
|----------------------------------------------------------------------------|
|-0-0-0-0-10-0-10-0-0-0-0-0-12-0-12-0-0-0-0-0-10-0-10-0-0-0-5^6--------------|

Pm................................. Pick gliss....
|--------------------------------------------------|
|--------------------------------------------------|
|--------------------------------------------------|
|-------------------------------------/------------|
|------------------------------------/-------------|
|-0-0-0-0-10-0-10-0-0-0-0-0-12-0-12-/--------------|

Ritornello:
                                    X8
|--------------------------------------|
|--------------------------------------|
|--------------------------------------|
|--------------------------------------|
|---------------3p0---8p5-5------------|
|-3p0--05p0--5-----5-------7--5^6r5p0-|

Pre solo:
                                    X4
|--------------------------------------|
|--------------------------------------|
|----------------------------0---------|
|--------------------------------------|
|-0h2-2-2-222-2-2-222-2-2--------------|
|-0h2-2-2-222-2-2-222-2-2-2/3----------|


Solo:
                                                                       X3
|-------------------------------------------------------------------------|
|-15t12-15t12-15t12-16t13-16t13-16t13-15t12-15t12-15t12-14t11-14t11-14t11-|
|-------------------------------------------------------------------------|
|-------------------------------------------------------------------------|
|-------------------------------------------------------------------------|
|-------------------------------------------------------------------------|

|-------------------------------------------------------------------------|
|-15^17~~~---------------------------------------------------------12-14--|
|---------------12-13-----12-13-----12-13-----12-13-----------12-14-------|
|----------12-13-----12-13-----12-13-----12-13-----------12-13------------|
|---------------------------------------------------12-13-----------------|
|-------------------------------------------------------------------------|

                                     bend on 17th
|-12-17-15-12--12-17-15-12------------------------------------------------|
|------------15-----------15-12-------------------------------------------|
|------------------------------15-12-[19]r18^19~~-------------------------|
|-------------------------------------------------------------------------|
|-------------------------------------------------------------------------|
|-------------------------------------------------------------------------|

Pre strofa:

Pm......................................................
|----------------------------------------------------------------------------|
|----------------------------------------------------------------------------|
|----------------------------------------------------------------------------|
|----------------------------------------------------------------------------|
|----------------------------------------------------------------------------|
|-0-0-0-0-10-0-10-0-0-0-0-0-12-0-12-0-0-0-0-0-10-0-10-0-0-0-5^6--------------|

 Pm.......................................................
|----------------------------------------------------------------------------|
|----------------------------------------------------------------------------|
|----------------------------------------------------------------------------|
|----------------------------------------------------------------------------|
|----------------------------------------------------------------------------|
|-0-0-0-0-10-0-10-0-0-0-0-0-12-0-12-0-0-0-0-0-10-0-10-0-0-0-3^4--------------|

 Pm.......................................................
|----------------------------------------------------------------------------|
|----------------------------------------------------------------------------|
|----------------------------------------------------------------------------|
|----------------------------------------------------------------------------|
|----------------------------------------------------------------------------|
|-0-0-0-0-10-0-10-0-0-0-0-0-12-0-12-0-0-0-0-0-10-0-10-0-0-0-5^6--------------|


Pm........................................................ H
|----------------------------------------------------------------------------|
|----------------------------------------------------------------------------|
|----------------------------------------------------------------------------|
|----------------------------------------------------------------------------|
|----------------------------------------------------------------------------|
|-0-0-0-0-10-0-10-0-0-0-0-0-12-0-12-0-0-0-0-0-10-0-10-0-0-0-3^4~~------------|


Strofa:

  Pm......................................................
|----------------------------------------------------------------------------|
|----------------------------------------------------------------------------|
|----------------------------------------------------------------------------|
|----------------------------------------------------------------------------|
|----------------------------------------------------------------------------|
|-0-0-0-0-10-0-10-0-0-0-0-0-12-0-12-0-0-0-0-0-10-0-10-0-0-0-5^6--------------|


Pm.......................................................
|----------------------------------------------------------------------------|
|----------------------------------------------------------------------------|
|----------------------------------------------------------------------------|
|----------------------------------------------------------------------------|
|----------------------------------------------------------------------------|
|-0-0-0-0-10-0-10-0-0-0-0-0-12-0-12-0-0-0-0-0-10-0-10-0-0-0-3^4--------------|

 Pm.......................................................
|----------------------------------------------------------------------------|
|----------------------------------------------------------------------------|
|----------------------------------------------------------------------------|
|----------------------------------------------------------------------------|
|----------------------------------------------------------------------------|
|-0-0-0-0-10-0-10-0-0-0-0-0-12-0-12-0-0-0-0-0-10-0-10-0-0-0-5^6--------------|

Pm................................. Pick gliss....
|--------------------------------------------------|
|--------------------------------------------------|
|--------------------------------------------------|
|-------------------------------------/------------|
|------------------------------------/-------------|
|-0-0-0-0-10-0-10-0-0-0-0-0-12-0-12-/--------------|

Ritornello:
                                    X8
|--------------------------------------|
|--------------------------------------|
|--------------------------------------|
|--------------------------------------|
|---------------3p0---8p5-5------------|
|-3p0--05p0--5-----5-------7--5^6r5p0-|


Pm........................................fade to silent
|-----------------------------------------------------------|
|-----------------------------------------------------------|
|-----------------------------------------------------------|
|-----------------------------------------------------------|
|-0--0---0--0---0--0---0--0---0--0---0--0...................|
|-0--0---0--0---0--0---0--0---0--0---0-0...................|

Thank you soo much MELO, from Bullseye: Italian BLS Cover Band,Palermo Chapter
http://www.myspace.com/blsbullseye
mancark@libero.it

  Visit MetalTabs.com for more metal tablature

bottom separator

Contact Us | Privacy Policy | Disclaimer
Copyright © 2001-2014 MetalTabs.com. All Rights Reserved.