top separator

Home

Forum

What's New

Submit a Tab

FAQ

Links

Contact Us

Link to Us

MetalTabs.com logo

Bands

0-9

A

B

C

D

E

F

G

H

I

J

K

L

M

N

O

P

Q

R

S

T

U

V

W

X

Y

Z

Search

What

Where
 

Sabbat (UK) - "Do Dark Horses Dream of Nightmares?" Guitar Tab

Plain Text Version
More Sabbat (UK) Tabs

Hits: 4049
Rated: 3.21 out of 5 (14 votes)
Updated: 2006-11-03 21:56:53

 

By:

Dahmers Fridge

sendpm.gif

email.gif

Important note
This tab is available online because we obtained explicit permission from Sabbat (UK) or their label.


#----------------------------------PLEASE NOTE---------------------------------#
#This file is the author's own work and represents their interpretation of the #
#song. You may only use this file for private study, scholarship, or research. #
#Unless specified otherwise, this is NOT an official tab from the band members.#
#------------------------------------------------------------------------------#

  Visit MetalTabs.com for more metal tablature
  
Band:  Sabbat
Album: Dreamweaver
Song:  Do Dark Horses Dream Of Nightmares

Copyright (c)  (Noise) (1989)
Version 1.0 - (10/09/06)

Transcribed By: Steve
Email:          stephen.elvidge1@ntlworld.com


.  - palm mute           /  - slide up to
\  - slide down to       ~  - vibrato
h  - hammer on           b  - Bend
p  - pull off            Suffixes for bend
t  - tap                 f  - full bend    h - half bend
ph - pinched harmonic    q  - quarter bend t - tap bend
*  - see comment         ^  - Hold bend    r release bend
x  - Stuccatto           ~  - vibrato bend
,  - slight palm mute    () - ghost note, sustained note
"  - tremolo note        <> - harmonic
pb - pre bend

Tuning E A D G B E



 Intro

 [---PM---]   PM            PM
|-----------------------------------|
|-----------------------------------|
|-----------------------------------|
|----------3-----3-/6\4/6\5----2-4--|
|-11-11-11-1--11-1-/4\2/4\3-00-0-2--|
|-----------------------------------|

 [---PM---]   PM           [--PM--]
|-----------------------------------|
|-----------------------------------|
|-----------------------------------|
|----------3-----3-/6\4/6\5---------|
|-11-11-11-1--11-1-/4\2/4\3---------|
|---------------------------0-0-000-|

 [---PM---]   PM            PM
|-----------------------------------|
|-----------------------------------|
|-----------------------------------|
|----------3-----3-/6\4/6\5----2-4--|
|-11-11-11-1--11-1-/4\2/4\3-00-0-2--|
|-----------------------------------|


 [---PM---]   PM
|--------------------------------------------------|
|--------------------------------------------------|
|--------------------------------------------------|
|----------3-----3-/6\4/6\5----------(5)-----------|
|-11-11-11-1--11-1-/4\2/4\3----------(3)-----------|
|-------------------------3----------(3)-----------|

 Backing under lead

       [-PM-]        [-PM-]          [-PM-]
|------------------------------------------------------|
|------------------------------------------------------|
|------------------------------------------------------|
|------------------------------------------------------|
|-2----------2--3----------3----2----------2--6--7-\6--|
|-0----0-0-0-0--1----1-1-1-1----0----0-0-0-0--4--5-\4--|

 Lead

|-12-------12-------15--------|
|----14-------14-------14-----|
|-------13-------13-------13--|
|-----------------------------|
|-----------------------------|
|-----------------------------| Rpt 4 X

 Verse
   PM  PM          h      h    PM  PM        h     h
|-------------------------------------------------------|
|-------------------------------------------------------|
|-------------------------------------------------------|
|-2---2---2------9-10p9\7-9p7-2---2--------9-10p9\7-9p7-|
|-2---2---2-10p7--------------2---2---10p7--------------|
|-0-0-0-0-0-------------------0-0-0-0-------------------|

   PM   PM  h     h     h     h         PM  PM [--PM--]
|------------------------------------------------------|
|------------------------------------------------------|
|------------------------------------------------------|
|-9---9----------------------------2-----------7-7-7-7-|
|-7---7---9-10p9\7-9p7\5-7p5\4-5p4-2-2-2---2---5-5-5-5-|
|---0---0----------------------------0-0-0-0-0-5-5-5-5-|

   PM   PM  PM PM           h     h     h
|--------------------------------------------|
|--------------------------------------------|
|--------------------------------------------|
|-9---9---9---9---6--------------------------|
|-7---7---7---7-----8p7-8-7-8p7\5-7p5\3-5p3--|
|---0---0---0---0----------------------------|

    PM  PM                   PM  PM                    PM  PM  PM
|------------------------------------------------------------------|
|------------------------------------------------------------------|
|------------------------------------------------------------------|
|-2---2-------/8-10p8\7-8p7---------------------------2---2---2----|
|-2---2---10\7--------------7---7---10\7-7-8p7\5-7p5\-2---2---2----|
|-0-0-0-0---------------------0---0-------------------0-0-0-0-0-0--|

   [PM]  [PM]   [PM]          [PM]  [PM]   [PM]
|-----------------------------------------------------|
|-----------------------------------------------------|
|-----------------------------------------------------|
|-9-----9-----9-----10/12\10-9-----9-----9-----7-7-7--|
|-7-----7-----7-----8-/10\8--7-----7-----7-----5-5-5--|
|---000---000---000------------000---000---000--------|

   [PM]  [PM]   [PM]          [PM]  [PM]   [PM]  PM
|----------------------------------------------------|
|----------------------------------------------------|
|----------------------------------------------------|
|-9-----9-----9-----10/12\10-9-----9-----9-----------|
|-7-----7-----7-----8-/10\8--7-----7-----7-----8\7/8-|
|---000---000---000------------000---000---000-6\5/6-|

    [PM]  [PM]  [--PM--] [PM]  [PM]  [PM] [-PM-]
|-------------------------------------------------|
|-------------------------------------------------|
|-------------------------------------------------|
|-----------------------------------5-----7-5-----|
|-7-----7-----8-7/8\7/8-7-----7-----3-000-5-3-8---|
|-5-555-5-555-6-5/6\5/6-5-555-5-555-----------6---|


    [PM]  [PM]  [--PM--] [PM]  [PM]  [PM] [-PM-]
|-------------------------------------------------|
|-------------------------------------------------|
|-------------------------------------------------|
|-----------------------------------7-(7)--7-5----|
|-7-----7-----8-7/8\7/8-7-----7-----5-(5)--5-3-8--|
|-5-555-5-555-6-5/6\5/6-5-555-5-555------------6--|


    PM          PM        PM          PM
|------------------------------------------------|
|------------------------------------------------|
|------------------------------------------------|
|-----------------------------------------5-4-3--|
|-2---2-3/5\3-2---2-3/5\3-2---2-3-3-2---2-5-4-3--|
|-0-0-0-1/3\1-0-0-0-1/3\1-0-0-0-1-1-0-0-0--------| Rpt


                       h                [-------PM-------]
|----------------------------------------------------------|
|----------------------------------------------------------|
|----------------------------------------------------------|
|-9---8--------------------------9---8---------------------|
|-7---6------6---6-7-6-7p6-trill-7-x-6---------------------|
|-7-x-6--6-7---7-----------------7-x-6---6-6-6-6-6-6-6-6---|

                       h                [-------PM-------]
|----------------------------------------------------------|
|----------------------------------------------------------|
|----------------------------------------------------------|
|-9---8----------6---6-7p6-trill-9---8---------------------|
|-7---6------6-----7-------------7-x-6---------------------|
|-7-x-6--6-7---7-----------------7-x-6---6-6-6-6-6-6-6-6---|

                       h                [-------PM-------]
|----------------------------------------------------------|
|----------------------------------------------------------|
|----------------------------------------------------------|
|-9---8----------6---------------9---8---------------------|
|-7---6------6-----7-6-7p6-trill-7-x-6---------------------|
|-7-x-6--6-7---7-----------------7-x-6---6-6-6-6-6-6-6-6---|

                       h
|-----------------------------------------------|
|-----------------------------------------------|
|-----------------------------------------------|
|-9---8----------6---6-7p6-trill-9---8---7------|
|-7---6------6-----7-------------7-x-6---5-5555-|
|-7-x-6--6-7---7-----------------7-x-6---5------|

 Guitar 1
   [PM]  [PM]    [PM] [PM] [PM]  [PM]           ~~~~~
[-----------------------------------------------------|
[-----------------------------------------------------|
[--------------9-----9-----------------------8-7------|
[-9-----9----9-9-999-9-99-8-----8----8---5-6----------|
[-7-777-7-77-7------------7-777-7-77-7-2--------------|
[--------------------------------------0--------------|
[Guitar 2
[                                               ~~~~
[-----------------------------------------------------|
[-----------------------------------------------------|
[--------------------------------------------8-7------|
[-----------------------------------------/6----------|
[-----------------------------------------------------|
[--------------------------------------0--------------|


   [PM]  [PM]    [PM] [PM] [PM]  [PM]           ~~~~~
|-----------------------------------------------------|
|-----------------------------------------------------|
|--------------9-----9-----------------------8-7------|
|-9-----9----9-9-999-9-99-8-----8----8----/6----------|
|-7-777-7-77-7------------7-777-7-77-7-2--------------|
|--------------------------------------0--------------|

   [PM]  [PM]      [PM] [PM]     [PM]  [PM]   [-PM-]  [-PM-]
|--------------------------------------------------------------|
|--------------------------------------------------------------|
|--------------------------------------------------------------|
|-6-----6----6/7-7-----7----9\7-6-----6----6/7-9999/10------8--|
|-4-444-4-44-4/5-5-555-5-55-7\5-4-444-4-44-4/5-7777/8--6666-6--|
|--------------------------------------------------------------|

  [PM]  [PM]      [PM] [PM]     [PM] [PM]   [----PM----]
|--------------------------------------------------------------|
|--------------------------------------------------------------|
|----------------6-----6----6----------------------------------|
|-6-----6----6/7-7-777-7-77-7-6-----6----6\5-------------0-----|
|-4-444-4-44-4/5--------------4-444-4-44-4\3-----1-3-4-3-0-----|
|--------------------------------------------0-3---------------|

 Chorus

                             PM  PM    [-PM-]  [PM]
|-------------------------------------------------------|
|-------------------------------------------------------|
|-------------------------------------------------------|
|-3--3/4\3--3--6-\4-/6-\5-\4---4---4--3------3-----3-3--|
|-1--1/2\1--1--4-\2-/4-\3-\2-2-2-2-2--1------1-----1-1--|
|---------------------------------------0000---000------|

                             PM  PM    [-PM-]  [PM] [-PM-]  [PM]
|------------------------------------------------------------------|
|------------------------------------------------------------------|
|------------------------------------------------------------------|
|-3--3/4\3--3--6-\4-/6-\5-\4---4---4--3------3-----3------3-----3--|
|-1--1/2\1--1--4-\2-/4-\3-\2-2-2-2-2--1------1-----1------1-----1--|
|---------------------------------------0000---000---0000---000----|

  [---------PM----------]
|------------------------|
|------------------------|
|------------------------|
|-5-4---5-4-3-5-4-3------|
|-----6-------------5-6--|
|------------------------|

 Rpt Verse



   [PM]        [PM]         [PM]
|--------------------------------------------------|
|--------------------------------------------------|
|--------------------------------------------------|
|-9----9/1010-9----9-12\10\9----9/1010-9-10-6-5-3--|
|-7----7/8-8--7----7-10\8-\7----7/8-8--7-8--6-5-3--|
|-7-00-7/8----7-00-7-10\8-\7-00-7/8----7-8---------| Rpt

    h
|-------------|
|-------------|
|-------------|
|-------------|
|-4-5p4-trill-|
|-------------|

 Rpt Chorus


 Guitar 1 acoustic
[-6---7-6-7-6-------------------------6---7-6-7-6------|
[---6---------6-------------------------6---------6----|
[------------------------------------------------------|
[---------------8-----------------------------------8--|
[------------------------------------------------------|
[------------------------------------------------------|
[Guitar 2
[                 [--------PM-------]
[------------------------------------------------------|
[------------------------------------------------------|
[------------------------------------------------------|
[-------------------------------------3------(3)-------|
[-8---------------3-2-----1-----1-----1------(1)-------|
[-6---------------1p0-000-1-000-1-000------------------|

 Guitar 1 acoustic
[------------------------12----12------------------------------|
[------------------11-------12----12---------------------------|
[---------------------10---------------------------------------|
[------------------------------------8-------------------------|
[--------------------------------------8-----------------------|
[--------------------------------------------------------------|
[Guitar 2
[[--------PM-------]                     [--------PM-------]
[--------------------------------------------------------------|
[--------------------------------------------------------------|
[--------------------------------------------------------------|
[------------------3-----------------------------------------3-|
[-1-----1-----1----1---------------------3-2-----1-----1-----1-|
[-1-000-1-000-1-00-----------------------1p0-000-1-000-1-000---|

 Guitar 1
[-6---7-6-7-6---------------------|
[---6---------6-------------------|
[---------------------------------|
[---------------8-----------------|
[---------------------------------|
[---------------------------------|
[Guitar 2
[             [--------PM-------]
[---------------------------------|
[---------------------------------|
[---------------------------------|
[----(3)--------------------------|
[----(1)---------3-2-----1-----1--|
[----------------1p0-000-1-000-1--|

 Guitar solo

  ph                        ~~
|-------------------------------------------------------------------|
|-13b---------------------------------------------------------------|
|-----9-10-9-10-12p10p9----9---9------------------------------------|
|-----------------------12-------9-10-12p10p9-9p7-------------------|
|-------------------------------------------------9-7-trem dive-----|
|-------------------------------------------------------------------|

                                              ~~~~
|-----------------------20----19----18----19--------------------------|
|-------------------/17----22----21----20----17-------17-1717-20b-r---|
|-<5> pull up-9b--r--------------------------------18-----------------|
|---------------------------------------------------------------------|
|---------------------------------------------------------------------|
|---------------------------------------------------------------------|

 Backing

   [PM] [PM] [PM] [PM] [PM] [PM]
|------------------------------------|
|------------------------------------|
|------------------------------------|
|-9----9----9----9----9----9----7-7--|
|-7----7----7----7----7----7----5-5--|
|---00---00---00---00---00---00------|

   [PM] [PM] [PM] [PM] [PM] [PM]
|----------------------------------------|
|----------------------------------------|
|----------------------------------------|
|-9----9----9----9----9----9----10/12\10-|
|-7----7----7----7----7----7----8-/10\8--|
|---00---00---00---00---00---00----------|

 Rpt Above

   [PM] [PM] [----PM----] [PM] [PM] [----PM-----]
|-------------------------------------------------|
|-------------------------------------------------|
|-------------------------------------------------|
|-2----2-----------------2----2----5----5---7-----|
|-0-00-0-00-1p00-1p0-1p0-0-00-0-00-3-00-3p0-5p0---|
|-------------------------------------------------| Rpt

                                ~~~
|------------------21-22p21p19------------------------------------|
|-14b--14b------17------------------------------------------------|
|-14b--14b--p12----------------16--\-16p14\12-14p12\11-12p11-9\7--|
|-----------------------------------------------------------------|
|-----------------------------------------------------------------|
|-----------------------------------------------------------------|

with harmoniser
|---------------------------------------------------------------------|
|-----------------------------9-12p9-------10-13p10-14p11----14p11----|
|-9---trem dive---/7/7/7----9-----------10----------------12-------12-|
|------------------------11----------12-------------------------------|
|---------------------------------------------------------------------|
|---------------------------------------------------------------------|

              [--PM--]               ~~~~~~~~~~~~~~~~
|-15-19-----------------------------------------------|
|-------15p12--------------7-8-10-8-10b-trem vibrato--|
|-------------9-11-9-10-12----------------------------|
|-----------------------------------------------------|
|-----------------------------------------------------|
|-----------------------------------------------------|



 Guitar 1
[----12--------------------------------------------------------------|
[-13----15-13-12-15-13-12-10-13-12-10-9----------9-9-6---9-6---------|
[---------------------------------------10-9-7-7-------5-----5-9-6-7-|
[--------------------------------------------------------------------|
[--------------------------------------------------------------------|
[--------------------------------------------------------------------|
[Guitar 2
[--------------------------------------------------------------------|
[-----------------------------17-----dive------13----------12-13-12--|
[-9------------------------------------------------------------------|
[--------------------------------------------------------------------|
[--------------------------------------------------------------------|
[--------------------------------------------------------------------|

 Guitar 1
                                             ~~~~~ [--------PM--------]
[--------------------13p10-13p10-13p10/12-10-8-------------------------|
[-----------------12---------------------------------------------------|
[--------------9-------------------------------------------------------|
[----/8-9p8-7---------------------------------------3p2p0-3p2p0-3p2p0--|
[-7--------------------------------------------------------------------|
[----------------------------------------------------------------------|
[Guitar 2
[                                             ~~~~  ~~~~~~~~~~~~~~~~
[-------------------------------------------------------------------|
[-15fb----dive-15---------------------/12-10-8------8---------------|
[-------------------------------------------------------------------|
[-------------------------------------------------------------------|
[-------------------------------------------------------------------|
[-------------------------------------------------------------------|

 [---------------------------PM------------------------------]ph~~~
|-------------------------------------------------------------------|
|-------------------------------------------------------------------|
|-------------------------------------------------------------7-----|
|-3p2p0-3p2p0-3p2p0-3p2p0-3p2p0-3p2p0-3p2p0-3p2p0-3p2p0-3p2p0-------|
|-------------------------------------------------------------------|
|-------------------------------------------------------------------|


                                                           ph
|-19p17p15----------------------------------------------------------|
|----------19p17p15-19p17p15----------------------------------------|
|----------------------------18p16p14-18p16p14-16p14p12-12-9-trem---|
|-------------------------------------------------------------------|
|-------------------------------------------------------------------|
|-------------------------------------------------------------------|

            ~~~~~~~~~~~~~~
|-------------------------------------------------|
|-------------------------12-pull up on trem---r--|
|-0-dive---14trem vibrato-------------------------|
|-------------------------------------------------|
|-------------------------------------------------|
|-------------------------------------------------|


     [PM]   [PM]     [PM]   [PM]    [---PM---]  [----PM----]
|------------------------------------------------------------|
|------------------------------------------------------------|
|------------------------------------------------------------|
|-2-3-----1------2-3-----5-4-----2-3---------2-3-------------|
|-2-3-----1------2-3-----5-4-----2-3---------2-3-------------|
|-----0-0----0-0-----0-0-----0-0-----0-0-0-0-----0-0-0-0-00--| Rpt 4 x

   PM   PM  PM     PM  PM        PM  PM  PM     PM  PM
|-------------------------------------------------------------|
|-------------------------------------------------------------|
|-------------------------------------------------------------|
|-2---2---2---3--2---2---3/5\3--2---2---2---3--2---2--/6-5-3--|
|-2---2---2---3--2---2---3/5\3--2---2---2---3--2---2--/6-5-3--|
|---0---0---0------0---0----------0---0---0------0---0--------|

   PM   PM  PM     PM  PM        PM  PM  PM     PM  PM
|-------------------------------------------------------------|
|-------------------------------------------------------------|
|-------------------------------------------------------------|
|-2---2---2---3--2---2---3/5\3--2---2---2---3--2---2----------|
|-2---2---2---3--2---2---3/5\3--2---2---2---3--2---2--/6-5-3--|
|---0---0---0------0---0----------0---0---0------0---0--------|

 Rpt Verse and Chorus

|-----------------------------------|
|-----------------------------------|
|-----------------------------------|
|-9------------(9)------------------|
|-7------------(7)------------------|
|-0------------(0)------------------|

       [-PM-]        [-PM-]          [-PM-]
|------------------------------------------------------|
|------------------------------------------------------|
|------------------------------------------------------|
|------------------------------------------------------|
|-2----------2--3----------3----2----------2--6--7-\6--|
|-0----0-0-0-0--1----1-1-1-1----0----0-0-0-0--4--5-\4--| Rpt 2 X

 Lead

|-12-------12-------15------|
|----14-------14-------14---|
|-------13-------13---------|
|---------------------------|
|---------------------------|
|---------------------------| Rpt 8 X

 Guitar 1
[-----------------------------------|
[-----------------------------------|
[-----------------------------------|
[-9------------(9)------------------|
[-7------------(7)------------------|
[-0------------(0)------------------|
[Guitar 2
[-----------------------------------|
[-----------------------------------|
[-9------------(9)------------------|
[-----------------------------------|
[-----------------------------------|
[-----------------------------------|



END

  Visit MetalTabs.com for more metal tablature

bottom separator

Contact Us | Privacy Policy | Disclaimer | Legal Notice
Copyright © 2001-2014 MetalTabs.com. All Rights Reserved.