top separator

Home

Forum

What's New

Submit a Tab

FAQ

Links

Contact Us

Link to Us

MetalTabs.com logo

Bands

0-9

A

B

C

D

E

F

G

H

I

J

K

L

M

N

O

P

Q

R

S

T

U

V

W

X

Y

Z

Search

What

Where
 

Malevolent Creation - "Supremacy Through Annihilation" Guitar Tab

Plain Text Version
More Malevolent Creation Tabs

Hits: 2632
Rated: 3.67 out of 5 (3 votes)
Updated: 2006-11-03 02:45:38

 

By:

Cannibal Carcass

sendpm.gif

email.gif

Important note
This tab is available online because we obtained explicit permission from Malevolent Creation or their label.


#----------------------------------PLEASE NOTE---------------------------------#
#This file is the author's own work and represents their interpretation of the #
#song. You may only use this file for private study, scholarship, or research. #
#Unless specified otherwise, this is NOT an official tab from the band members.#
#------------------------------------------------------------------------------#

  Visit MetalTabs.com for more metal tablature
  
Band:  Malevolent Creation
Album: Warkult
Song:  Supremacy Through Annihilation

Copyright (c)  Nuclear Blast 2004
Version 1.1 - 2006

Transcribed By: Cannibal Carcass
Email:          cannibal764@yahoo.com


.  - palm mute           /  - slide up to
\  - slide down to       ~  - vibrato
h  - hammer on           b  - Bend
p  - pull off            Suffixes for bend
t  - tap                 f  - full bend    h - half bend
ph - pinched harmonic    q  - quarter bend t - tap bend
*  - see comment         ^  - Hold bend    r release bend
x  - Stuccatto           ~  - vibrato bend
,  - slight palm mute    () - ghost note, sustained note
"  - tremolo note        <> - Trill

Tuning C# F# B C G# C#

RIFF A:
                                  |--3--|--3--|--3--|--3--|
C#|-------------------------------------------------------|
G#|-------------------------------------------------------|
C |-------------------------------------------------------|
B |-------------------------------------------------------|
F#|-2-----5-4-----7-2-3-2-----5-4-3-2-2-------3-2-0-------|
C#|-0-000-3-2-000-5-0-1-0-000-3-2-------5-3-5-------3-2-0-|
      ...     ...         ...     . . . . . . . . . . . .

                                  |--3--|--3--|--3--|--3--|
C#|-------------------------------------------------------|
G#|-------------------------------------------------------|
C |-------------------------------------------------------|
B |-------------------------------------------------------|
F#|-2-----5-4-----7-2-3-2-----5-4-------------------------|
C#|-0-000-3-2-000-5-0-1-0-000-3-2-5-3-2-3-2-2-5-3-2-3-2-2-| X 2
      ...     ...         ...     . . . . . . . . . . . .

RIFF B:
                   |--3--|--3--|--3--|--3--|
C#|-----------------------------------------|
G#|-----------------------------------------|
C |-----------------------------------------|
B |-----------------------------------------|
F#|-----------------5-3-2-------3-2-0-------|
C#|-0-0-0-0-4-4-4-4-------5-3-2-------3-2-0-|
    . . . . . . . .       . . .       . . .

                    |--3--|--3--|--3--|--3--|
C#|-----------------------------------------|
G#|-----------------------------------------|
C |-----------------------------------------|
B |-----------------------------------------|
F#|-----------------------------------------|
C#|-1-1-1-1-5-5-4-4-5-3-2-5-3-2-5-3-2-5-3-2-| X 4
    . . . . . . . . . . . . . . . . . . . .

FILL 1:
C#|-----------------------------------------|
G#|-----------------------------------------|
C |-----------------------------------------|
B |-2---------------------------------------|
F#|-2---------------------------------------|
C#|-0---------------------------------------|


RIFF C:
C#|--------------------------------------------------------|
G#|--------------------------------------------------------|
C |--------------------------------------------------------|
B |-2------2--2------2--2--2--2------2--2------------------|
F#|-2--2-2-2--2--2-2-2--2--2--2--2-2-2--2------------------|
C#|-0--0-0-0--0--0-0-0--0--0--0--0-0-0--0--0-4-3-4-5-4-5-6-|
       . .       . .             . .

C#|-----------------------------------------------------|
G#|-----------------------------------------------------|
C |-----------------------------------------------------|
B |-2------2--2------2--2--2--4------4--3------4--6--7--|
F#|-2--2-2-2--2--2-2-2--2--2--4------4--3------4--6--7--|
C#|-0--0-0-0--0--0-0-0--0--0--2--000-2--1--000-2--4--5--| X 4
       . .       . .             ...       ...


RIFF A X2


RIFF D:
C#|-------------------------------------|
G#|-------------------------------------|
C |-------------------------------------|
B |-------------------------------------|
F#|---------3-------6-------------------|
C#|-1-1-1-1-1-1-1-1-4-1-1-1-1h2p1-0h1h2-|
    . . . .   . . .   . . .

C#|-------------------------------------|
G#|-------------------------------------|
C |-------------------------------4-----|
B |-------------------------------2-----|
F#|---------4-------6-------4--3--------|
C#|-1-1-1-1-2-1-1-1-4-1-1-1-2--1--------|
    . . . .   . . .   . . . .  .

C#|-------------------------------------|
G#|-------------------------------------|
C |-------------------------------------|
B |-------------------------------------|
F#|---------3-------6-------------------|
C#|-1-1-1-1-1-1-1-1-4-1-1-1-1h2p1-0h1h2-|
    . . . .   . . .   . . .

C#|-----------------------------------|
G#|-----------------------------------|
C |-----------------------------------|
B |-----------------------------------|
F#|---------------------------------6-|
C#|-0-9-0-8-0-7-0-4/5-0-9-0-8-0-7-0-4-| X 2
    .   .   .   .     .   .   .   .



RIFF B X4
FILL 1

RIFF C X4

RIFF A X 3

End on low B chord.

  Visit MetalTabs.com for more metal tablature

bottom separator

Contact Us | Privacy Policy | Disclaimer | Legal Notice
Copyright © 2001-2014 MetalTabs.com. All Rights Reserved.