top separator

Home

Forum

What's New

Submit a Tab

FAQ

Links

Contact Us

Link to Us

MuSpy.com

MetalTabs.com logo

Bands

0-9

A

B

C

D

E

F

G

H

I

J

K

L

M

N

O

P

Q

R

S

T

U

V

W

X

Y

Z

Search

What

Where
 

Bloodbath - "Blood Vortex" Guitar Tab

Plain Text Version
More Bloodbath Tabs

Hits: 2581
Rated: 3.67 out of 5 (3 votes)
Updated: 2006-11-03 02:42:32

 

By:

Cannibal Carcass

sendpm.gif

email.gif

Important note
This tab is available online because we obtained explicit permission from Bloodbath or their label.


#----------------------------------PLEASE NOTE---------------------------------#
#This file is the author's own work and represents their interpretation of the #
#song. You may only use this file for private study, scholarship, or research. #
#Unless specified otherwise, this is NOT an official tab from the band members.#
#------------------------------------------------------------------------------#

  Visit MetalTabs.com for more metal tablature
  
Band:  Bloodbath
Album: Nightmares Made Flesh
Song:  Blood Vortex

Copyright (c)  Century Media 2004
Version 1.1 - 2006

Transcribed By: Cannibal Carcass (with minor corrections from Steve Lombardi)
Email:          cannibal764@yahoo.com
.  - palm mute           /  - slide up to
\  - slide down to       ~  - vibrato
h  - hammer on           b  - Bend
p  - pull off            Suffixes for bend
t  - tap                 f  - full bend    h - half bend
ph - pinched harmonic    q  - quarter bend t - tap bend
*  - see comment         ^  - Hold bend    r release bend
x  - Stuccatto           ~  - vibrato bend
,  - slight palm mute    () - ghost note, sustained note
"  - tremolo note        <> - Trill

Tuning B E A D F# B


CHORUS/INTRO:
B |-----------------------------------------|
F#|-----------------------------------------|
D |-----------------------------------------|
A |-4----5----------------------------------|
E |-4--------3-3-3-3--3-3-3-3----------1p0--|
B |-2--------1-1-1-1--1-1-1-1-0-1p0-3p0-----| X3
             . . . .  . . . .
CHORUSb:
B |-----------------------------------------|
F#|-----------------------------------------|
D |-----------------------------------------|
A |-4-4--5----------------------------------|
E |-4--------3-3-3-3--3-3-3-3-3-3-3-3-3-3---|
B |-2--------1-1-1-1--1-1-1-1-1-1-1-1-1-1---|
             . . . .  . . . . . . . . . .

RYTHM UNDER LEAD:
B |----------------------------------||-------------------------------------|
F#|----------------------------------||-------------------------------------|
D |----------------------------------||-------------------------------------|
A |-2------------2------2-5-5--------||-2------------2------2h3p2-2h3p2p0---|
E |-2------5-6-6-2-------------------||-2------5-6-6-2----------------------|
B |-0--000-5-6-6-0--000--------------||-0--000-5-6-6-0--000-----------------| X4
       ...          ...                    ...          ...

LEAD
B |----5h6p5-2-1-4-5------------------------|
F#|-3----------------6----6-7-9-------------|
D |-----------------------------------------|
A |-----------------------------------------|
E |-----------------------------------------|
B |-----------------------------------------| X8



VERSE:
B |---------------------------------------------|
F#|---------------------------------------------|
D |---------------------------------------------|
A |-2---------2-3-2h3p2-----2---------2-3-2h3p2-|
E |-2--2-2--2-----------2-2-2--2-2--2-----------|
B |-0--0-0--0-----------0-0-0--0-0--0-----------|
       . .  .           . .    . .  .
B |-------------------------------------------|
F#|-------------------------------------------|
D |-------------------------------------------|
A |-----2---------2-3-2h3p2-----2----66553322-|
E |-2-2-2--2-2--2-----------2-2-2-2-----------|
B |-0-0-0--0-0--0-----------0-0-0-0-----------| X4
    . .    . .  .           . .   .

CHORUS  X3
CHORUSb X1

VERSE X2



BREAKDOWN:
Gtr. 1:
B |-----------------------------------------------------|
F#|-----------------------------------------------------|
D |-----------------------------------------------------|
A |-4--4------------------------------------------------|
E |-2--2------------------------------------------------|
B |-----------------------------------------------------|

Gtr. 2:
B |-----------------------------------------------------|
F#|-----------------------------------------------------|
D |-----------------------------------------------------|
A |--------------------------------------------0h2p0-3p0|
E |-2-2-2-2-2-2-3-3-3-3-3-3----------------0h2----------|
B |-------------------------0-0-0-XXXXXXX---------------| X4
    . . . . . . . . . . . . . . .


BREAKDOWN PART 2(PLAYED UNDER LEAD)

(Both guitars this time)...
B |-----------------------------------------------------|
F#|-----------------------------------------------------|
D |-----------------------------------------------------|
A |--------------------------------------------0h2p0-3p0|
E |-2-2-2-2-2-2-3-3-3-3-3-3----------------0h2----------|
B |-------------------------0-0-0-XXXXXXX---------------| X8
    . . . . . . . . . . . . . . .


LEAD X8 (played over BREAKDOWN PART 2)

CHORUS  X3
CHORUSb X1
CHORUS  X3
CHORUSb X1

End.

  Visit MetalTabs.com for more metal tablature

bottom separator

Contact Us | Privacy Policy | Disclaimer | Legal Notice
Copyright © 2001-2014 MetalTabs.com. All Rights Reserved.