#----------------------------------PLEASE NOTE---------------------------------#
#This file is the author's own work and represents their interpretation of the #
#song. You may only use this file for private study, scholarship, or research. #
#Unless specified otherwise, this is NOT an official tab from the band members.#
#------------------------------------------------------------------------------#

  Visit MetalTabs.com for more metal tablature
  
Band:  Lord Gore
Album: The Autophagous Orgy
Song:  Morgue Whore

Copyright (c)  Razorback Records, 2002
Version 1.0 - 10/23/2006

Transcribed By: casketcrusher
Email:          cannibalistic_corpsegrinder@hotmail.com


.  - palm mute           /  - slide up to
\  - slide down to       ~  - vibrato
h  - hammer on           b  - Bend
p  - pull off            Suffixes for bend
t  - tap                 f  - full bend    h - half bend
ph - pinched harmonic    q  - quarter bend t - tap bend
*  - see comment         ^  - Hold bend    r release bend
x  - Stuccatto           ~  - vibrato bend
,  - slight palm mute    () - ghost note, sustained note
"  - tremolo note        <> - Trill

Alright I am going to tab out the correct version of Morgue Whore.
Thanks goes to Anders for setting the basics for me with his tab.
Lord Gore used 7 strings on this album but itís not needed for this song.
 Figure out the timming and structure for yourself.
Tunning: B,E,A,D,F#,B, or B,E,A,D,G,B,E

Riff 1: Very slow and with variations. (pinch harmonics ect)
|--------------------------|
|--------------------------|
|------3-----------3"fb----|
|----2---2-------2---------|
|--1-------1---1-----------|
|0-----------0-------------|

Riff 2:
|---------------------------------------------------|
|---------------------------------------------------|
|------------------6-5-4----------------------------|
|--------------5---5-4-3----------------------------|
|2-3-5-6-5-3-2-3-3-4-3-2----------------------------|
|0-1-3-4-3-1-0---1----------------------------------|
Riff 3:
|---------------------------------------------------|
|---------------------------------------------------|
|---------------------------------------------------|
|--------------5------------------------------------|
|2-3-5-6-5-3-2-3-3-4h7p4h7p4h7p4h7-3h6p3h6p3h6h6----|
|0-1-3-4-3-1-0---1----------------------------------|

cont..

|-----------------|
|-----------------|
|-----------------|
|-----------------|
|2h5p2h5p2h5p2h5--|
|-----------------|

Riff 4:
|---------------------------------------------------|
|---------------------------------------------------|
|---------------------------------------------------|
|---------------------------------------------------|
|---------------------3"---4"-3"-2"-----------------|
|0"-1"-3"-4"-3"-1"-0"---1"--------------------------|
 .  .  .  .  .  .  .  . .  .  .  .
Riff 5:

|-------------------------------------------------------|
|-------------------------------------------------------|
|-------------------------------------------------------|
|-------------------------------------------------------|
|---------------------3"---4h7p4h7p4h7p4h7-3h6p3h6p3h6h6|
|0"-1"-3"-4"-3"-1"-0"---1"------------------------------|
 .  .  .  .  .  .  .  . .
Cont...

|-----------------|
|-----------------|
|-----------------|
|-----------------|
|2h5p2h5p2h5p2h5--|
|-----------------|

Riff 666: Greatest Riff EVER! Repeat as many times as needed,

|-----------------------------------------------------|
|-----------------------------------------------------|
|-----------------------------------------------------|
|--------4---------4---------4------------------------|
|2-------2-5-------2-4-------2-3-5--------------------|
|0-0-0-0---3-0-0-0---2-0-0-0---1-3--------------------|
   . . .     . . .     . . .

Cont..

|-----------------------------------------------------|
|-----------------------------------------------------|
|-----------------------------------------------------|
|--------4---------4---------4---5--------------------|
|2-------2-5-------2-4-------2-3-3--------------------|
|0-0-0-0---3-0-0-0---2-0-0-0---1----------------------|
   . . .     . . .     . . .

Riff 7.

|---------------------------------------------------|
|---------------------------------------------------|
|---------------------------------------------------|
|---------------------------------------------------|
|---2"----2"----2"----------2"----2"----2"--3ph-----|
|0"----3"----2"---1"--3"-0"----3"----2"---1"--------|
 .  .  .  .  .  . .   .  .  .  .  .  .  . .

End on B.

So yeah thatís it. Most of the riffs repeat and itís pretty straight forward.
So yeah. Have fun.

Take it sleazy!

  Visit MetalTabs.com for more metal tablature