top separator

Home

Forum

What's New

Submit a Tab

FAQ

Links

Contact Us

Link to Us

MetalTabs.com logo

Bands

0-9

A

B

C

D

E

F

G

H

I

J

K

L

M

N

O

P

Q

R

S

T

U

V

W

X

Y

Z

Search

What

Where
 

Napalm Death - "Our Pain Is Their Power" Guitar Tab

Plain Text Version
More Napalm Death Tabs

Hits: 2286
Updated: 2006-10-31 07:26:54

 

By:

goatman

sendpm.gif

email.gif

Important note
This tab is available online because we obtained explicit permission from Napalm Death or their label.


#----------------------------------PLEASE NOTE---------------------------------#
#This file is the author's own work and represents their interpretation of the #
#song. You may only use this file for private study, scholarship, or research. #
#Unless specified otherwise, this is NOT an official tab from the band members.#
#------------------------------------------------------------------------------#

  Visit MetalTabs.com for more metal tablature
  
Band:  (NAPALM DEATH)
Album: (THE CODE IS RED...LONG LIVE THE CODE)
Song:  (OUR PAIN IS THEIR POWER)

Copyright (c)  (CENTURY MEDIA) (2005)


Transcribed By: (GOATMAN)
Email:          (VIRUS010891@AOL.COM)




Tuning: DOWN 1.5 STEPS
                                  X12
   |--(12)-------------------(11)---|-----------------------------------|
   |.--------(16)-----(12)---------.|-(12)------------------------------|
GTR|--------------------------------|-----------------------------------|
 1 |--------------------------------|-----------------------------------|
   |.-------------------------------|-----------------------------------|
   |--------------------------------|-----------------------------------|
   |                                |                                   |
   |-----------11--------------11---|-----------------------------------|
   |.--------10--------------10----.|-(12)------------------------------|
GTR|--------------------------------|-----------------------------------|
 2 |--------------------------------|-----------------------------------|
   |.------------------------------.|-----------------------------------|
   |--------------------------------|-----------------------------------|

  Visit MetalTabs.com for more metal tablature

bottom separator

Contact Us | Privacy Policy | Disclaimer | Legal Notice
Copyright © 2001-2014 MetalTabs.com. All Rights Reserved.