#----------------------------------PLEASE NOTE---------------------------------#
#This file is the author's own work and represents their interpretation of the #
#song. You may only use this file for private study, scholarship, or research. #
#Unless specified otherwise, this is NOT an official tab from the band members.#
#------------------------------------------------------------------------------#

  Visit MetalTabs.com for more metal tablature
  
Band:  Impetigo
Album: Horror Of The Zombies
Song:  Defiling The Grave

Copyright (c)  (Wild Rags) (1992)
Version 1.0 - (10/20/2006)

Transcribed By: Wizard Of Gore
Email:          cannibalistic_corpsegrinder@hotmail.com


.  - palm mute           /  - slide up to
\  - slide down to       ~  - vibrato
h  - hammer on           b  - Bend
p  - pull off            Suffixes for bend
t  - tap                 f  - full bend    h - half bend
ph - pinched harmonic    q  - quarter bend t - tap bend
*  - see comment         ^  - Hold bend    r release bend
x  - Stuccatto           ~  - vibrato bend
,  - slight palm mute    () - ghost note, sustained note
"  - tremolo note        <> - Trill

Yet another tab from my favourite band of all time!
Listen to the song for timing and order of riffs.
Tuning  C#,F#,B,e,g#,c#



Riff 1: After the sample from an interview with murderer
Daniel Rackowitz done by Geraldo Riveria!
|---------|
|---------|
|---------|  Repeat a shit load.
|---------|
|5"6"3"6" |
|3"4"1"4" |

Then

Riff 2:
|----------|
|----------|
|----------|
|4"5"4"6"--|
|2"3"2"4"--|
|----------|

Riff 3 (those are ones not elevens ect)x2
|---------------------------------------------------|
|---------------------------------------------------|
|---------------------------------------------------|
|---------------------------------------------------|
|--11--------11-------------------------------------|
|00--00-11-00--00-11--------------------------------|

Riff 4 (Not sure about this. Those are twos not 22s)
|---------------------------------------------------|
|---------------------------------------------------|
|---------------------------------------------------|
|---------------------------------------------------|
|--22--33---22--33----------------------------------|
|00--22---00--22------------------------------------|

Riff 5. (Slower and repeat until solo finishes)

|---------------------------------------------------|
|---------------------------------------------------|
|---------------------------------------------------|
|---------------------------------------------------|
|2-3-2-4--------------------------------------------|
|0-1-0-2--------------------------------------------|

Repeat riffs.
End on C#.
So yeah thatís all the riffs. Very simple but a fucking kick ass song.
Could possibly be my favourite Impetigo song.
Stay tunned for Wizard Of Gore....

  Visit MetalTabs.com for more metal tablature