top separator

Home

Forum

What's New

Submit a Tab

FAQ

Links

Contact Us

Link to Us

MuSpy.com

MetalTabs.com logo

Bands

0-9

A

B

C

D

E

F

G

H

I

J

K

L

M

N

O

P

Q

R

S

T

U

V

W

X

Y

Z

Search

What

Where
 

Graveworm - "Descending Into Ethereal Mist" Guitar Tab

Plain Text Version
More Graveworm Tabs

Hits: 3048
Rated: 5.00 out of 5 (5 votes)
Updated: 2006-10-31 07:07:47

 

By:

USS

sendpm.gif

email.gif

Important note
This tab is available online because we obtained explicit permission from Graveworm or their label.


#----------------------------------PLEASE NOTE---------------------------------#
#This file is the author's own work and represents their interpretation of the #
#song. You may only use this file for private study, scholarship, or research. #
#Unless specified otherwise, this is NOT an official tab from the band members.#
#------------------------------------------------------------------------------#

  Visit MetalTabs.com for more metal tablature
  
Band:  Graveworm
Album: Scourge of Malice
Song:  Descending into Ethereal Mist

Copyright (c)  Neon Knights 2001
Version 1.0 -  2002

Transcribed by:   Chayns of Demolishment
E-mayl:           infernal_purge@hotmail.com

Note:
Tuning is custom C
c |
G |
Eb|
Bb|
F |
C |

Note:
For everyone who wants to know how the Germans write music and tabs, and for
everyone who does not understand German tabs:

             B = Bb and H = B

As in the book 'Gödel, Escher, Bach', the melody 'B A C H' exists.
This is therefore 'B flat (Bb), A, C, B' in the other notation.
I see alot of German tabs (with H), and for example my little sister thought
the maker of that tab a fool.

Note:
The violin plays a dominant role in this song, so I decided to add it here.

Note:
=  = let ring
.  = staccato note (which means: palm mute)

Riff 1 (by violin in 6/8)(every note is being stroke until the next):
|-10---10--|-9------|--------|-7--6---|
|-----7--7-|----8-7-|-8--787-|--------|
|----------|--------|--------|--------|
|----------|--------|--------|--------|
|----------|--------|--------|--------|
|----------|--------|--------|--------|

Riff 1 (by guitars in 4/4):
|-----------------------------------|-----------------------------------|
|-----------------------------------|-----------------------------------|
|-7777777777777777-7777----7777-----|-6666666666666666------------------|
|----------------------4444----4444-|------------------5555555544444444-|
|-----------------------------------|-----------------------------------|
|-----------------------------------|-----------------------------------|

|-----------------------------------|-----------------------------------|
|-----------------------------------|-----------------------------------|
|-----------------------------------|-4444444444444444-3333333344446666-|
|-5555555555555555-5555444455554444-|-----------------------------------|
|-----------------------------------|-----------------------------------|
|-----------------------------------|-----------------------------------|

                                    |-----------------------------------|
                                    |-----------------------------------|
Second time:                        |-4444444444444444-3333333333333333-|
                                    |-----------------------------------|
                                    |-----------------------------------|
                                    |-----------------------------------|

Riff 2 (violin):
|-12-----9-|-11-------|-12----14-15-12-|-14---12----|
|----------|----------|----------------|------------|
|----------|----------|----------------|------------|
|----------|----------|----------------|------------|
|----------|----------|----------------|------------|
|----------|----------|----------------|------------|

Riff 2 (guitars):
|-----------------------------------|-----------------------------------|
|-5555555555555555-5555555522222222-|-3333333333333333-3333333333333333-|
|-----------------------------------|-----------------------------------|
|-----------------------------------|-----------------------------------|
|-----------------------------------|-----------------------------------|
|-----------------------------------|-----------------------------------|

|---------------------22223333------|-2222222222222222------------------|
|-5555555555555555-5555--------5555-|------------------5555555555555555-|
|-----------------------------------|-----------------------------------|
|-----------------------------------|-----------------------------------|
|-----------------------------------|-----------------------------------|
|-----------------------------------|-----------------------------------|

Fill 1 (electric guitar)
|-------------|
|-------------|
|-------------|
|-2====-------|
|-2====-------|
|-0====-------|

Fill 1 (acoustic guitar) /for whoever does not hear it:\
                         \ listen carefully and you do /
---|-----------------|-----------------|
---|-3==-----2==-----|-5==-------------|
---|-2==-----2==-----|-2==-------------|
-4-|-------4-------4-|-----------------|
---|-----------------|-----------------|
---|-----------------|-----------------|

Riff 3 (violin)          __________________
                        /
|-12-----9-|-10-------|-9-------|-9-------|
|----------|----------|---------|---------|
|----------|----------|---------|---------|
|----------|----------|---------|---------|
|----------|----------|---------|---------|
|----------|----------|---------|---------|
____________
            \
|-9-------|-9------9-|-10-------|-10-------|
|---------|-----12---|-12-------|-12-------|
|---------|----------|----------|----------|
|---------|----------|----------|----------|
|---------|----------|----------|----------|
|---------|----------|----------|----------|

Riff 3 (guitars)
|----------|----------|---------|---------|
|----------|----------|---------|---------|
|----------|----------|---------|---------|
|-2==------|-5==------|-4==-----|-4==-----|
|-2==------|-5==------|-4==-----|-4==-----|
|-0==------|-3==------|-2==-----|-2==-----|

|----------------------------------|----------------------------------|
|----------------------------------|----------------------------------|
|----------------------------------|----------------------------------|
|-4=-4.4.4.4.4.4.-4.4.4.4.4.4.4.4.-|-4=-4.4.4.4.4.4.-4.4.4.4.4.4.4.4.-|
|-4=-4.4.4.4.4.4.-4.4.4.4.4.4.4.4.-|-4=-4.4.4.4.4.4.-4.4.4.4.4.4.4.4.-|
|-2=-2.2.2.2.2.2.-2.2.2.2.2.2.2.2.-|-2=-2.2.2.2.2.2.-2.2.2.2.2.2.2.2.-|

|----------|----------|
|----------|----------|
|----------|----------|
|-2==------|-2==------|
|-2==------|-2==------|
|-0==------|-0==------|

Riff 4:
|-----------------------------------|-----------------------------------|
|-----------------------------------|-----------------------------------|
|-----------------------------------|-----------------------------------|
|-----------------------------------|-----------------------------------|
|-4444444444444444-22222222---------|------------------4444444422222222-|
|--------------------------55555555-|-3333333333333333------------------|

|-----------------------------------|-----------------------------------|
|-----------------------------------|-----------------------------------|
|------------------22222222---------|-----------------------------------|
|-5555555555555555---------55554444-|-5555555555555555-4444444455554444-|
|-----------------------------------|-----------------------------------|
|-----------------------------------|-----------------------------------|

Riff 5:
|-----------------------------------|-----------------------------------|
|-555555555555----------------------|-555555555555----------------------|
|-------------6666-7777777777777777-|-------------6666-7777444444444444-|
|-----------------------------------|-----------------------------------|
|-----------------------------------|-----------------------------------|
|-----------------------------------|-----------------------------------|

|-----------------------------------|-----------------------------------|
|-----------------------------------|-8888888877777777-5555-------------|
|-7777777777776666-7777777766667777-|----------------------777766667777-|
|-----------------------------------|-----------------------------------|
|-----------------------------------|-----------------------------------|
|-----------------------------------|-----------------------------------|

Riff 6:
|---------|---------|---------|---------|
|---------|---------|---------|---------|
|---------|---------|---------|---------|
|-5==-----|-5==-----|-4==-----|-5==-----|
|-5==-----|-5==-----|-4==-----|-5==-----|
|-3==-----|-3==-----|-2==-----|-3==-----|

Riff 2 agayn
Riff 3 agayn
Riff 1 agayn /with the difference that the piece 'second time' is replaced by\
             \                             the piece they play the first time/

Keys play outro /which is the same as violin riff 1, but each note only once\
                \                                          and in ritardando/

  Visit MetalTabs.com for more metal tablature

bottom separator

Contact Us | Privacy Policy | Disclaimer | Legal Notice
Copyright © 2001-2014 MetalTabs.com. All Rights Reserved.