top separator

Home

Forum

What's New

Submit a Tab

FAQ

Links

Contact Us

Link to Us

MetalTabs.com logo

Bands

0-9

A

B

C

D

E

F

G

H

I

J

K

L

M

N

O

P

Q

R

S

T

U

V

W

X

Y

Z

Search

What

Where
 

Putrid Pile - "Shit Body Painting" Guitar Tab

Plain Text Version
More Putrid Pile Tabs

Hits: 2735
Rated: 5.00 out of 5 (1 vote)
Updated: 2006-10-31 07:03:26

 

By:

aXeBastard

sendpm.gif

email.gif

Important note
This tab is available online because we obtained explicit permission from Putrid Pile or their label.


#----------------------------------PLEASE NOTE---------------------------------#
#This file is the author's own work and represents their interpretation of the #
#song. You may only use this file for private study, scholarship, or research. #
#Unless specified otherwise, this is NOT an official tab from the band members.#
#------------------------------------------------------------------------------#

  Visit MetalTabs.com for more metal tablature
  
Band:  Putrid Pile
Album: Collection Of Butchery
Song:  Shit Body Painting

Copyright (c)  United Gutteral Records 2003
Version 1.0 - 18/10/06

Transcribed By: aXeBastard
Email:          Smashed_Face@msn.com


.  - palm mute           /  - slide up to
\  - slide down to       ~  - vibrato
h  - hammer on           b  - Bend
p  - pull off            Suffixes for bend
t  - tap                 f  - full bend    h - half bend
ph - pinched harmonic    q  - quarter bend t - tap bend
*  - see comment         ^  - Hold bend    r release bend
x  - Stuccatto           ~  - vibrato bend
,  - slight palm mute    () - ghost note, sustained note
"  - tremolo note        <> - Trill

Tuning : Standard B
|----------------------------------------------|Riff A
|----------------------------------------------|
|-6"-----------6"----------6"------------6"-7"-|
|-4"-7"-6"-7"--4"---7"-6"--4"---7"-6"-7"-4"-5"-|
|----5"-4"-5"-------5"-4"-------5"-4"-5"-------|
|----------------------------------------------|


|-------------------------------------------|Riff B1
|-------------------------------------------|
|-------------------------------------------|
|-------------------------------------------|
|-----------5"-4"---------------------5"-4"-|
|-3"--2"----------5"-4"-5"-8"---4"-5"-------|


|--------------------------------------------|Riff B2
|--------------------------------------------|
|--------------------------------------------|
|--------------------------------------------|
|-----------5"-4"---------------5-5-5--5--5--|
|-3"--2"----------5"-4"-5"-8"---3-3-3--3--3--|
                                . . .  .  .

|---------------------|Riff C1
|---------------------|
|---------------------|
|----------5----------|
|-5--4--5--3----------|
|-3--2--3-----232-232-|
              ... ...

|------------------------------|Riff C2
|------------------------------|
|------------------------------|
|----------5-------------------|
|-5--4--5--3-------------------|
|-3--2--3-----2"-3"-2"---3"-2"-|
              .  .  .    .  .

|--------------------------------------|Riff D1
|--------------------------------------|
|--------------------------------------|
|--------------------------------------|
|---------------5"-4"------4"-3"-------|
|-3"--2"-----3"---------3"-------4"-5"-|


|--------------------------------------|Riff D2
|--------------------------------------|
|--------------------------------------|
|--------------------------------------|
|---------------5"-4"------4"-3"-------|
|-3"--2"-----3"---------3"-------------|

THE END - Thats all. All the riffs are there and im sure there neally %100.
Enjoy mah fukrs

  Visit MetalTabs.com for more metal tablature

bottom separator

Contact Us | Privacy Policy | Disclaimer | Legal Notice
Copyright © 2001-2014 MetalTabs.com. All Rights Reserved.