top separator

Home

Forum

What's New

Submit a Tab

FAQ

Links

Contact Us

Link to Us

MuSpy.com

MetalTabs.com logo

Bands

0-9

A

B

C

D

E

F

G

H

I

J

K

L

M

N

O

P

Q

R

S

T

U

V

W

X

Y

Z

Search

What

Where
 

Mithotyn - "Nocturnal riders" Guitar Tab

Plain Text Version
More Mithotyn Tabs

Hits: 1647
Updated: 2006-10-31 06:57:37

 

By:

Daniil

sendpm.gif

email.gif

Important note
This tab is available online because we obtained explicit permission from Mithotyn or their label.


#----------------------------------PLEASE NOTE---------------------------------#
#This file is the author's own work and represents their interpretation of the #
#song. You may only use this file for private study, scholarship, or research. #
#Unless specified otherwise, this is NOT an official tab from the band members.#
#------------------------------------------------------------------------------#

  Visit MetalTabs.com for more metal tablature
  
MITHOTYN-Nocturnal Riders
Gathered Around The Oaken Table-1999
Copyright Invasion Records
Transcribed by Daniil Laletin
e-mail: dlaletin@mail.ru
version 1.0 June 2006

All corrections are welcome.

 " - tremolo
 / - slide down
 \ - slide up
 . - palm mute
 ~ - long sound
 x - rest
 p - pull off
 h - hammer on
 tr - trill
 () - ghost note, sustained note
 * - artificial harmonics
 b - bend

 Tuning from low to high: D G C F A D

================================

 Intro
|-------------------------------------|
|-------------------------------5p6p8-|
|-------------------------4h5p7-------|
|-3p0-5p0-3p0-2p0-3p0-5p0-------------|gtr 1
|-------------------------------------|
|-------------------------------------|
|
|-------------------------------------|
|-------------------------------------|
|-------------------------------------|
|-3p0-2p0-3p0-5p0-7p0-5p0-3p2p0-------|gtr 2
|-------------------------------3-----|
|-------------------------------------|

|--------------------------------|
|--------------------------------|
|-----------------3-2------------|
|-3p0-5p0-3p0-2p0-----5-3-2------|gtr 1
|---------------------------3-5--|
|--------------------------------|
|
|--------------------------------|
|-------------------------3------|
|-----------------3---5-------2--|
|-3p0-2p0-3p0-5p0----------------|gtr 2
|--------------------------------|
|--------------------------------|



 Riff 1a
|--------------------------------------|
|--------------------------------5p6p8-|
|--------------------------4h5p7-------|
|-3"0"5"0"3"0"2"0"3"0"5"0"-------------|gtr 1
|--------------------------------------|
|--------------------------------------|
|
|--------------------------------------|
|--------------------------------------|
|--------------------------------------|
|-3"0"2"0"3"0"5"0"7"0"5"0"-3p2p0-------|gtr 2
|--------------------------------3-----|
|--------------------------------------|

|---------------------------------|
|---------------------------------|
|------------------3-2------------|
|-3"0"5"0"3"0"2"0"-----5-3-2------|gtr 1
|----------------------------3-5--|
|---------------------------------|
|
|---------------------------------|
|--------------------------3------|
|------------------3---5-------2--|
|-3"0"2"0"3"0"5"0"----------------|gtr 2
|---------------------------------|
|---------------------------------|



 Riff 2
|-----------------------------------------|
|-----------------------------------------|
|-----------------------------------------|
|--------5"------------2"4"2"-------------|gtr 1
|-2"-----3"-------5"---0"2"0"----5"----4"-|
|-0"--------------3"-------------3"----2"-|
|
|-----------------------------------------|
|------5-8~---8-7--------7-7h8p7-5h7p5-3--|
|-4~--------------7~---7------------------|
|-----------------------------------------|gtr 2
|-----------------------------------------|
|-----------------------------------------|

|------------------------------------------|
|------------------------------------------|
|----------------------4-2h4p2-0h2p0-------|
|--------5"--------------------------4h5p4-|gtr 1
|-2"-----3"-------5"-----------------------|
|-0"--------------3"-----------------------|
|
|-----------------7~---7-5h7p5-3h5p3-2h3p2-|
|------5-8~---/108-------------------------|
|-4~---------------------------------------|
|------------------------------------------|gtr 2
|------------------------------------------|
|------------------------------------------|



 Riff 3a
|---------------------------------------------------------------|
|---------------------------------------------------------------|
|---------------------------------------------------------------|
|-2--------9--2--------9----------------------------------------|gtr 1
|-2--------6--2--------7--2---------5-----------7------4--------|
|-0--------7--0--------7--0---------3-----------5------2--------|
|
|---------------------------------------------------------------|
|---------------------------------------------------------------|
|---------------------------------------------------------------|
|----------------------9-----------1010-12-10-9-7-9-10-9-7------|gtr 2
|-7-7h9h10-6--7-7h9h10----7-7h9h10-------.--.-.-.-.--.-.-.-10-9-|
|-----------------------------------------------------------.-.-|


 Riff 3b
|----------------------------|
|----------------------------|
|----------------------------|
|-2-------------2------------|gtr 1
|-2-------------2------------|
|-0--------777--0--------000-|
|          ...           ...
|----------------------------|
|----------------------------|
|----------------------------|
|------------------------999-|gtr 2
|-7-7h9h10-666--7-7h9h10-...-|
|----------...---------------|

|---------------------------------------|
|---------------------------------------|
|---------------------------------------|
|---------------------------------------|gtr 1
|-2---------5-----------7------4--------|
|-0---------3-----------5------2--------|
|
|---------------------------------------|
|---------------------------------------|
|---------------------------------------|
|----------1010-12-10-9-7-9-10-9-7------|gtr 2
|-7-7h9h10-------.--.-.-.-.--.-.-.-10-9-|
|-----------------------------------.-.-|



 Riff 4
|-------------------------------------------------|
|-------------------------------------------------|
|-------------------------------------------------|
|-----------------7-7-7-7-7-7-7-7-5-5-5-5-5-5-5-5-|gtr 1
|-2-2-2-2-2-2-2-2-5-5-5-5-5-5-5-5-3-3-3-3-3-3-3-3-|
|-0-0-0-0-0-0-0-0-.-.-.-.-.-.-.-.-.-.-.-.-.-.-.-.-|
| . . . . . . . .
|-------------------------------------------------|
|-------------------------------------------------|
|-------------------------------------------------|
|-----------7-9-7-----------7-9-7-----------7-9---|gtr 2
|-109-7-910-.-.-.-109-7-910-.-.-.-109-7-910-.-.-7-|
|--..-.-.-.--------..-.-.-.--------..-.-.-.-----.-|

|---------------------------------|
|---------------------------------|
|---------------------------------|
|-4-4-4-4-4-4-4-4-5-5-5-5---------|gtr 1
|-2-2-2-2-2-2-2-2-3-3-3-3-5-----4-|
|-.-.-.-.-.-.-.-.-.-.-.-.-3-----2-|
|
|---------------------------------|
|---------------------------------|
|---------------------------------|
|---------------7-------7-9-7-----|gtr 2
|-7-6---6-7-910-.-7-910-.-.-.-109-|
|-.-.-7-.-.-.-.---.-.-.--------..-|
      .
 Last time, play this riff without palm muting on gtr2



 Riff 1b
|--------------------------------------|
|--------------------------------------|
|--------------------------------4p5p7-|
|--------------------------4h5p7-------|gtr 1
|-3"0"5"0"3"0"2"0"3"0"5"0"-------------|
|--------------------------------------|
|
|--------------------------------------|
|--------------------------------------|
|--------------------------------------|
|--------------------------------------|gtr 2
|-3"0"2"0"3"0"5"0"7"0"5"0"-3p2p0-------|
|--------------------------------3-----|

|---------------------------------|
|---------------------------------|
|---------------------------------|
|------------------3-2------------|gtr 1
|-3"0"5"0"3"0"2"0"-----5-3-2------|
|----------------------------3-5--|
|
|---------------------------------|
|---------------------------------|
|--------------------------2------|
|------------------3---5-------2--|gtr 2
|-3"0"2"0"3"0"5"0"----------------|
|---------------------------------|



 Ending chord
|------|
|------|
|------|
|-2----|both
|-2----|
|-0----|

  Visit MetalTabs.com for more metal tablature

bottom separator

Contact Us | Privacy Policy | Disclaimer | Legal Notice
Copyright © 2001-2014 MetalTabs.com. All Rights Reserved.