top separator

Home

Forum

What's New

Submit a Tab

FAQ

Links

Contact Us

Link to Us

MuSpy.com

MetalTabs.com logo

Bands

0-9

A

B

C

D

E

F

G

H

I

J

K

L

M

N

O

P

Q

R

S

T

U

V

W

X

Y

Z

Search

What

Where
 

Graveworm - "Abandoned by Heaven" Guitar Tab

Plain Text Version
More Graveworm Tabs

Hits: 2665
Rated: 5.00 out of 5 (5 votes)
Updated: 2006-10-31 06:56:32

 

By:

USS

sendpm.gif

email.gif

Important note
This tab is available online because we obtained explicit permission from Graveworm or their label.


#----------------------------------PLEASE NOTE---------------------------------#
#This file is the author's own work and represents their interpretation of the #
#song. You may only use this file for private study, scholarship, or research. #
#Unless specified otherwise, this is NOT an official tab from the band members.#
#------------------------------------------------------------------------------#

  Visit MetalTabs.com for more metal tablature
  
Band:  Graveworm
Album: Scourge of Malice
Song:  Abandoned by Heaven

Copyrighted (c):  Neon Knights, 2001
Version 1.0    :  2002

Transcribed by:   Chayns of Demolishment
E-mayl:           infernal_purge@hotmail.com

Note:
Tuning is custom B
b |
F#|
D |
A |
E |
B |

Note:
=  =  let ring
.  = staccato note

Riff 1:
|-----------|-----------|-----------|-----------|
|-----------|-----------|-----------|-----------|
|-----------|-----------|-----------|-----------|
|-2===------|-2===------|-2===------|-4===------|
|-2===------|-2===------|-2===------|-4===------|
|-0===------|-0===------|-0===------|-2===------|

Riff 1' (played by Lead Guitar over riff 1):
|-----7777----7777-----777788887777-|-----7777----7777-----777777777777-|
|-5555----5555-----5555-------------|-5555----5555-----5555-------------|
|-----------------------------------|-----------------------------------|
|-----------------------------------|-----------------------------------|
|-----------------------------------|-----------------------------------|
|-----------------------------------|-----------------------------------|

|-5555555555555555-55555555---------|------------------5555555555555555-|
|--------------------------88887777-|-8888888888888888------------------|
|-----------------------------------|-----------------------------------|
|-----------------------------------|-----------------------------------|
|-----------------------------------|-----------------------------------|
|-----------------------------------|-----------------------------------|

Riff 2:
       /    repeat this once         \
------||-------------|---------------||-------------|-------------|
------||-------------|---------------||-------------|-------------|
-5.4.-||-2==---5==---|----------5.4.-||-2==---------|-------------|
-5.4.-||-2==---5==---|-2===-----5.4.-||-2==---5==---|-4===--------|
-3.2.-||-0==---3==---|-2===-----3.2.-||-0==---5==---|-4===--------|
------||-------------|-0===----------||-------3==---|-2===--------|

Riff 3:
|-----------------------------------|-----------------------------------|
|-----------------------------------|-----------------------------------|
|-----------------------------------|-----------------------------------|
|-4444444444445555------------------|-----------------------------------|
|------------------7777777777777777-|-5555555555555555-5555555555555555-|
|-----------------------------------|-----------------------------------|

|-----------------------------------|-----------------------------------|
|-----------------------------------|-----------------------------------|
|-7777777755554444-7777777777777777-|-5555555555555555-5555555555555555-|
|-----------------------------------|-----------------------------------|
|-----------------------------------|-----------------------------------|
|-----------------------------------|-----------------------------------|

Acoustic Guitar fill:
|-----------------------------------|-----------------------------------|
|-----------------------------------|-----------------------------------|
|-----------------------------------|-----------------------------------|
|---4---4---4---4----4---4---4---4--|---4---4---4---4----4---4---4---4--|
|-2---2---2---2----2---2---2---2----|-2---2---2---2----2---2---2---2----|
|-----------------------------------|-----------------------------------|

|-----------------------------------|-----------------------------------|
|-----------------------------------|-----------------------------------|
|-----------------------------------|---4---4---4---4----4---4---4---4--|
|---4---4---4---4----5---5---5---5--|-2---2---2---2----2---2---2---2----|
|-2---2---2---2----3---3---3---3----|-----------------------------------|
|-----------------------------------|-----------------------------------|

Riff 1 agayn, this time with voice
Riff 1' after two times Riff 1

Riff 2 agayn
Riff 3 agayn, repeat and fade out.

  Visit MetalTabs.com for more metal tablature

bottom separator

Contact Us | Privacy Policy | Disclaimer | Legal Notice
Copyright © 2001-2014 MetalTabs.com. All Rights Reserved.