top separator

Home

Forum

What's New

Submit a Tab

FAQ

Links

Contact Us

Link to Us

MuSpy.com

MetalTabs.com logo

Bands

0-9

A

B

C

D

E

F

G

H

I

J

K

L

M

N

O

P

Q

R

S

T

U

V

W

X

Y

Z

Search

What

Where
 

Toxic Holocaust - "Thrashing Death" Guitar Tab

Plain Text Version
More Toxic Holocaust Tabs

Hits: 3118
Rated: 5.00 out of 5 (5 votes)
Updated: 2007-08-21 04:02:54

 

By:

Wolfsherz

sendpm.gif

email.gif

Important note
This tab is available online because we obtained explicit permission from Toxic Holocaust or their label.


#----------------------------------PLEASE NOTE---------------------------------#
#This file is the author's own work and represents their interpretation of the #
#song. You may only use this file for private study, scholarship, or research. #
#Unless specified otherwise, this is NOT an official tab from the band members.#
#------------------------------------------------------------------------------#

  Visit MetalTabs.com for more metal tablature
  
Band:  Toxic Holocaust
Album: Hell On Earth
Song:  Thrashing Death

Copyright (c)  Nuclear War Now! 2005

Transcribed By: Wolfsherz/Jens Cautereels
Email:          cautereels.jens@gmail.com

Tuning: EADGBe
e ---------------------------------------------------------------
B ---------------------------------------------------------------
G ---------------------------------------------------------------
D 9-999999-10-101010101010-12-121212--5/7/5--9-9999999-----------
A 7-777777-8--8-8-8-8-8-8--10-101010--3/5/3--7-7777777-----------
E --------------------------------------------------------------- X4

e ----------------------------------------------------------------------------
B ----------------------------------------------------------------------------
G ----------------------------------------------------------------------------
D --------------9-9--------------10-10--------------9-9---------------12-12-12
A -7-5-3232-5-3-7-7-7-5-3232-5-3-8--8--7-5-3232-5-3-7-7--7-5-3232-5-3-10-10-10
E ----------------------------------------------------------------------------

e ----------------------------------------------------------------------------
B ----------------------------------------------------------------------------
G ----------------------------------------------------------------------------
D --------------9-9--------------10-10--------------9-9-----------------------
A -7-5-3232-5-3-7-7-7-5-3232-5-3-8--8--7-5-3232-5-3-7-7--7-5-3232-5-3-5-5-5---
E --------------------------------------------------------------------3-3-3---

e ----------------------------------------------------------------
B ----------------------------------------------------------------
G ----------------------------------------------------------------
D --44444-5-4-5--77777-9-7-5----44444-5-4-5-----------------------
A --22222-3-2-3--55555-7-5-3----22222-3-2-3-5555555-77------------
E ------------------------------------------3333333-55------------ X4

e  ---------------------------------------------------------------
B ----------------------------------------------------------------
G ----------------------------------------------------------------
D --44-444-4-5-555-5-7-77--------44-444---------------------------
A --22-222-2-3-333-3-5-55--5-7-5-22-222---------------------------
E -------------------------3-5-3---------------------------------- X2

e  ---------------------------------------------------------------
B ----------------------------------------------------------------
G ----------------------------------------------------------------
D --4444-5-4-5--7777-9-7-5----4444-5-4-5--------------------------
A --2222-3-2-3--5555-7-5-3----2222-3-2-3-555555-77----------------
E ---------------------------------------333333-55---------------- X4

e  ---------------------------------------------------------------
B ----------------------------------------------------------------
G ----------------------------------------------------------------
D --44-444-4-5-555-5-7-77--------44-444---------------------------
A --22-222-2-3-333-3-5-55--5-7-5-22-222---------------------------
E -------------------------3-5-3---------------------------------- X2

Break:
e ----------------------------------------------------------------
B ----------------------------------------------------------------
G ----------------------------------------------------------------
D -99999-10-9-10-14141414-16-14-10-9999-10-9-10--555555-77--------
A -77777-8--7-8--12121212-14-12-8--7777-8--7-8---333333-55--------
E ----------------------------------------------------------------
cont.:
e ----------------------------------------------------------------
B ----------------------------------------------------------------
G ----------------------------------------------------10-9--------
D -99999-10-9-10-14141414-16-14-10-9999-10-9-10--9-10-10-9--------
A -77777-8--7-8--12121212-14-12-8--7777-8--7-8---9-10-8--7--------
E -----------------------------------------------7-8--------------

e ----------------------------------------------------------------
B ----------------------------------------------------------------
G ----------------------------------------------------------------
D --44444-5-4-5--77777-9-7-5----44444-5-4-5-----------------------
A --22222-3-2-3--55555-7-5-3----22222-3-2-3-5555555-77------------
E ------------------------------------------3333333-55------------ X4

e  ---------------------------------------------------------------
B ----------------------------------------------------------------
G ----------------------------------------------------------------
D --44-444-4-5-555-5-7-77--------44-444---------------------------
A --22-222-2-3-333-3-5-55--5-7-5-22-222---------------------------
E -------------------------3-5-3---------------------------------- X2

e ----------------------------------------------------------------
B ----------------------------------------------------------------
G ----------------------------------------------------------------
D 99-999-7-1010-101010-10-12-121212--5/7/5--99-999-9--------------
A 77-777-9-8-8--8-8-8--8--10-101010--3/5/3--77-777-7--------------
E ---------------------------------------------------------------- X2

e ----------------------------------------------------------------------------
B ----------------------------------------------------------------------------
G ----------------------------------------------------------------------------
D --------------9-9--------------10-10--------------9-9-----------------------
A -7-5-3232-5-3-7-7-7-5-3232-5-3-8--8--7-5-3232-5-3-7-7--7-5-3232-5-3-5-5-5---
E --------------------------------------------------------------------3-3-3---

  Visit MetalTabs.com for more metal tablature

bottom separator

Contact Us | Privacy Policy | Disclaimer | Legal Notice
Copyright © 2001-2014 MetalTabs.com. All Rights Reserved.