top separator

Home

Forum

What's New

Submit a Tab

FAQ

Links

Contact Us

Link to Us

MetalTabs.com logo

Bands

0-9

A

B

C

D

E

F

G

H

I

J

K

L

M

N

O

P

Q

R

S

T

U

V

W

X

Y

Z

Search

What

Where
 

Burzum - "Dunkelheit" Guitar Tab

Plain Text Version
More Burzum Tabs

Hits: 8973
Rated: 3.50 out of 5 (8 votes)
Updated: 2006-10-31 06:46:34

 

By:

sendpm.gif

email.gif

Important note
This tab is available online because we obtained explicit permission from Burzum or their label.


#----------------------------------PLEASE NOTE---------------------------------#
#This file is the author's own work and represents their interpretation of the #
#song. You may only use this file for private study, scholarship, or research. #
#Unless specified otherwise, this is NOT an official tab from the band members.#
#------------------------------------------------------------------------------#

  Visit MetalTabs.com for more metal tablature
  
Band:  (Burzum)
Album: (Filosofem)
Song:  (Dunkelheit)

Transcribed By: (Mohammed Al Ghamdi)
Email:          (devil_on_line23@hotmail.com)


.  - palm mute           /  - slide up to
\  - slide down to       ~  - vibrato
h  - hammer on           b  - Bend
p  - pull off            Suffixes for bend
t  - tap                 f  - full bend    h - half bend
ph - pinched harmonic    q  - quarter bend t - tap bend
*  - see comment         ^  - Hold bend    r release bend
x  - Stuccatto           ~  - vibrato bend
,  - slight palm mute    () - ghost note, sustained note
"  - tremolo note        <> - Trill

Tuning E A D G B E

|-------------------------------------------------------------------|
|-------------------------------------------------------------------|
|-4-----------------------------------------------------------------|
|---2---------------------------------------------------------------|
|-------------------------------------------------------------------|
|-------------------------------------------------------------------|

This part dependes on the picking. listen to the song , see how it goes
|-------------------------------------------------------------------|
|-------------------------------------------------------------------|
|-------4---4---4--333333000000-------4---4---4--66666633333--------|
|--2------2---2-------------------2-----2---2-----------------------|
|--2------------------------------2---------------------------------|
|--0------------------------------0---------------------------------|



|---|--------0-----------0-----------0------------0-----------------|
|---|-----0----0-------0---0-------0----0-------0----0--------------|
|---|---0--------0---0-------0---0--------0---0--------0------------|
|-2-|-2------------2-----------2------------2------------2----------|
|-2-|---------------------------------------------------------------|
|-0-|---------------------------------------------------------------|



|--------------0------------0-----------0---------------------------|
|------------0---0--------0---0-------0----0------------------------|
|----------0-------0---0--------0---0--------0----------------------|
|---8----2----------2-------------2------------2--------------------|
|---10--------------------------------------------------------------|
|---10--------------------------------------------------------------|


|-------------------------------------------------------------------|
|-------------------------------------------------------------------|
|-------------------------------------4-----------------------------|
|-5-5-4-4---5-5-4-2---5-5-4-4---5-5-4-4-----------------------------|
|-5-5-4-4---5-5-4-2---5-5-4-4---5-5-4-2-----------------------------|
|-3-3-2-2---3-3-2-0---3-3-2-2---3-3-2-------------------------------|

|-------------------------------------------------------------------|
|-------------------------------------------------------------------|
|-------------------------------------------------------------------|
|-5-5-4-4---5-5-4-2---5-5-4-4---5-5-4-5-8--2------------------------|
|-5-5-4-4---5-5-4-2---5-5-4-4---5-5-4-5-10-0------------------------|
|-3-3-2-2---3-3-2-0---3-3-2-2---3-3-2-7-10-0------------------------|



|-------------------------------------------------------------------|
|-------------------------------------------------------------------|
|-------------------------------------------------------------------|
|-5------3--2-------------------------------------------------------|
|-5------3--2-------------------------------------------------------|
|-3------1--0-------------------------------------------------------|



END

  Visit MetalTabs.com for more metal tablature

bottom separator

Contact Us | Privacy Policy | Disclaimer | Legal Notice
Copyright © 2001-2014 MetalTabs.com. All Rights Reserved.