top separator

Home

Forum

What's New

Submit a Tab

FAQ

Links

Contact Us

Link to Us

MetalTabs.com logo

Bands

0-9

A

B

C

D

E

F

G

H

I

J

K

L

M

N

O

P

Q

R

S

T

U

V

W

X

Y

Z

Search

What

Where
 

Vio-lence - "Bodies On Bodies" Guitar Tab

Plain Text Version
More Vio-lence Tabs

Hits: 3825
Rated: 5.00 out of 5 (3 votes)
Updated: 2006-10-29 07:02:51

 

By:

Hidrio

sendpm.gif

email.gif

Important note
This tab is available online because we obtained explicit permission from Vio-lence or their label.


#----------------------------------PLEASE NOTE---------------------------------#
#This file is the author's own work and represents their interpretation of the #
#song. You may only use this file for private study, scholarship, or research. #
#Unless specified otherwise, this is NOT an official tab from the band members.#
#------------------------------------------------------------------------------#

  Visit MetalTabs.com for more metal tablature
  
Band:  Vio-lence
Album: Eternal Nightmare
Song:  Bodies On Bodies

Copyright (c)  Mechanic (1988)
Version 1.0 -  29/9/06

Transcribed By: Ryan
Email:          ryanhidrio@hotmail.com


.  - palm mute           /  - slide up to
\  - slide down to       ~  - vibrato
h  - hammer on           b  - Bend
p  - pull off            Suffixes for bend
t  - tap                 f  - full bend    h - half bend
ph - pinched harmonic    q  - quarter bend t - tap bend
*  - see comment         ^  - Hold bend    r release bend
x  - Staccato            ~  - vibrato bend
,  - slight palm mute    () - ghost note, sustained note
"  - tremolo note        tr - Trill

Tuning E A D G B E



(Pick Scrape)
|---------------|
|---------------|
|---------------|
|---------------|
|-\\\\\\\\\\\\\-|
|---------------|


0:02
|-----------------------------------------------------------------|
|-----------------------------------------------------------------|
|-----------------------------------------------------------------|
|-----3-------3-------3-------3p0-----3-------3-------3---3-5-3-2-|
|-00001---00001---00001---0000----00001---00001---00001-----------|
|-----------------------------------------------------------------|   x3
  ....    ....    ....    ....    ....    ....    ....


0:15
|-----------------------------------------------------------------|
|-----------------------------------------------------------------|
|-----------------------------------------------------------------|
|-----3-------3-------3-------3p0-----3-------3---3---3---3---3---|
|-00001---00001---00001---0000----00001---00001---1---1---1---1---|
|-----------------------------------------------------------------|
  ....    ....    ....    ....    ....    ....


0:19
|-----------------------------------------------------------------|
|-----------------------------------------------------------------|
|-----------------------------------------------------------------|
|-3-------2-------3-------2-----------------------3-------2-------|
|-1-------0-------1-------0-------0-1-0---0-1-4-0-1-------0-------|
|---------------------------------------3-------------------------|
                                  . . . . . . . .

|-----------------------------------------------------------------|
|-----------------------------------------------------------------|
|-----------------------------------------------------------------|
|-3-------2-------3-------2---------------------------------------|
|-1-------0-------1-------0-------1-1-1-1-1-1-1-1-1-1-1-1-1-1-1-1-|
|-----------------------------------------------------------------|
                                  . . . . . . . . . . . . . . . .


0:28
|-----------------------------------------------------------------|
|-----------------------------------------------------------------|
|-----------------------------------------------------------------|
|-3-------2-------3-------2-----------------------3-------2-------|
|-1-------0-0000001-------0-0000000-1-0---0-1-4-0-1-------0-000000|
|---------------------------------------3-------------------------|
            ......          ....... . . . . . . .           ......

|-----------------------------------------------------------------|
|-----------------------------------------------------------------|
|-----------------------------------------------------------------|
|-3-------2-------3-------2-------3-------2-----------3-------3---|
|-1-------0-0000001-------0-0000001-------0-0000001-0-----1-0-----|
|-----------------------------------------------------------------|   x3
            ......          ......          ......


0:54
|-----------------------------------------------------------------|
|-----------------------------------------------------------------|
|-----------------------------------------------------------------|
|-----5-------4-------7-------4-------5-------4\3-----------------|
|-00003---00002---00005---00002---00003---00002\1-1-1-1-1-1-1-1-1-|
|-----------------------------------------------------------------|
  ....    ....    ....    ....    ....    ....    . . . . . . . .


0:58
|-----------------------------------------------------------------|
|-----------------------------------------------------------------|
|-----------------------------------------------------------------|
|-2---5-------4-------7-------4-------5-------4\3-----------------|
|-0---3---00002---00005---00002---00003---00002\1-1-1-1-1-1-1-1-1-|
|-----------------------------------------------------------------|   x3
          ....    ....    ....    ....    ....    . . . . . . . .


1:11
|-----------------------------------------------------------------|
|-----------------------------------------------------------------|
|-----------------------------------------------------ph------ph--|
|-----------------6---5---4---2---3---3---3---3-------3-------3---|
|-3---4---5---6---4---3---2---0---1---1---1---1---1-0-----1-0-----|
|-1---2---3---4---------------------------------------------------|
                  .   .   .       .   .   .   .


1:15
|-----------------------------------------------------------------|
|-----------------------------------------------------------------|
|-----------------------------------------------------------------|
|-3-------2-------3-------2-----------------------3-------2-------|
|-1-------0-0000001-------0-0000000-1-0---0-1-4-0-1-------0-000000|
|---------------------------------------3-------------------------|
            ......          ....... . . . . . . .           ......

|-----------------------------------------------------------------|
|-----------------------------------------------------------------|
|-----------------------------------------------------ph------ph--|
|-3-------2-------3-------2-------3-------2-----------3-------3---|
|-1-------0-0000001-------0-0000001-------0-0000001-0-----1-0-----|
|-----------------------------------------------------------------|   x2
            ......          ......          ......


1:32
|-----------------------------------------------------------------|
|-----------------------------------------------------------------|
|-----------------------------------------------------------------|
|-----5-------4-------7-------4-------5-------4\3-----------------|
|-00003---00002---00005---00002---00003---00002\1-1-1-1-1-1-1-1-1-|
|-----------------------------------------------------------------|
  ....    ....    ....    ....    ....    ....    . . . . . . . .


1:36
|-----------------------------------------------------------------|
|-----------------------------------------------------------------|
|-----------------------------------------------------------------|
|-2---5-------4-------7-------4-------5-------4\3-----------------|
|-0---3---00002---00005---00002---00003---00002\1-1-1-1-1-1-1-1-1-|
|-----------------------------------------------------------------|   x3
          ....    ....    ....    ....    ....    . . . . . . . .


1:49
|-----------------------------------------------------------------|
|-----------------------------------------------------------------|
|-----------------------------------------------------ph------ph--|
|-----------------6---5---4---2---3---3---3---3-------3-------3---|
|-3---4---5---6---4---3---2---0---1---1---1---1---1-0-----1-0-----|
|-1---2---3---4---------------------------------------------------|
                  .   .   .       .   .   .   .


1:54
|-----------------------------------------------------------------|
|-----------------------------------------------------------------|
|-----------------------------------------------------------------|
|---------------------------------------------------------------3-|
|-0-0-000-0-0-000-0-0-000-0-0-000-0-0-000-0-0-000-0-0-000-0-0-001-|
|-----------------------------------------------------------------|
  . . ... . . ... . . ... . . ... . . ... . . ... . . ... . . ...


1:58
|-----------------------------------------------------------------|
|-----------------------------------------------------------------|
|---------------------------------------------------------------5-|
|-------------------3---4---5---6-------------------3---4---3---3-|
|-0-000-0-0-000-0-0-1-0-2-0-3-0-4-0-000-0-0-000-0-0-1-0-2-0-1-0---|
|-----------------------------------------------------------------|
  . ... . . ... . .   .   .   .   . ... . . ... . .   .   .   .

|-----------------------------------------------------------------|
|-----------------------------------------------------------------|
|-----------------------------------------------------------------|
|-------------------3---4---5---6-----------------3---------------|
|-0-000-0-0-000-0-0-1-0-2-0-3-0-4-0-000-0-0-000-0-1-------5---\\\-|
|---------------------------------------------------------3---\\\-|
  . ... . . ... . .   .   .   .   . ... . . ... .


2:08
|-----------------------------------------------------------------|
|-----------------------------------------------------------------|
|---------------------------------------------------------------5-|
|-------------------3---4---5---6-------------------3---4---3---3-|
|-0-000-0-0-000-0-0-1-0-2-0-3-0-4-0-000-0-0-000-0-0-1-0-2-0-1-0---|
|-----------------------------------------------------------------|
  . ... . . ... . .   .   .   .   . ... . . ... . .   .   .   .

|-----------------------------------------------------------------|
|-----------------------------------------------------------------|
|-----------------------------------------------------------------|
|-------------------3---4---5---6-----------------3---------------|
|-0-000-0-0-000-0-0-1-0-2-0-3-0-4-0-000-0-0-000-0-1-------5---4-3-|
|---------------------------------------------------------3---2-1-|
  . ... . . ... . .   .   .   .   . ... . . ... .             . .


2:18
|-----------------------------------------------------------------|
|-----------------------------------------------------------------|
|-----------------------------------------------------------------|
|-----------------------------------------------------------------|
|-------------------3---4---5---6-------------------3---4---5---3-|
|-0-000-0-0-000-0-0-1-0-2-0-3-0-4-0-000-0-0-000-0-0-1-0-2-0-3-0-1-|
  . ... . . ... . .   .   .   .   . ... . . ... . .   .   .   .

|-----------------------------------------------------------------|
|-----------------------------------------------------------------|
|-----------------------------------------------------------------|
|-------------------------------------------------4---------------|
|-------------------3---4---5---6-----------------2-------4---5---|
|-0-000-0-0-000-0-0-1-0-2-0-3-0-4-0-000-0-0-000-0---------2---3---|
  . ... . . ... . .   .   .   .   . ... . . ... .         .


2:27
|-----------------------------------------------------------------|
|-----------------------------------------------------------------|
|-----------------------------------------------------------------|
|---------------------------------------------------------7-109~--|
|---------7h8-------------5h6-------------4h5---------------------|
|-0-000-0-----0-0-0-000-0-----0-0-0-000-0-----0-0-0-000-0---------|
  . ... .     . . . ... .     . . . ... .     . . . ... .

|-----------------------------------------------------------------|
|-----------------------------------------------------------------|
|-----------------------------------------------------------------|
|---------------------------------------------------------9h1010--|
|---------7h8-------------5h6-------------4h5---------------------|
|-0-000-0-----0-0-0-000-0-----0-0-0-000-0-----0-0-0-000-0---------|   x2
  . ... .     . . . ... .     . . . ... .     . . . ... .


2:46 (Under solo)
|-----------------------------------------------------------------|
|-----------------------------------------------------------------|
|-----------------------------------------------------------------|
|-----------------------------------------------------------------|
|---------7/8-------------5/6-------------4/5-------------5-8-7~--|
|-0-000-0-5/6-0-0-0-000-0-3/4-0-0-0-000-0-2/3-0-0-0-000-0---------|
  . ... .     . . . ... .     . . . ... .     . . . ... .

|-----------------------------------------------------------------|
|-----------------------------------------------------------------|
|-----------------------------------------------------------------|
|-----------------------------------------------------------------|
|---------7/8-------------5/6-------------4/5-------------3--3--3-|
|-0-000-0-5/6-0-0-0-000-0-3/4-0-0-0-000-0-2/3-0-0-0-000-0-1--1--1-|   x2
  . ... .     . . . ... .     . . . ... .     . . . ... .


3:05
|-----------------------------------------------------------------|
|-----------------------------------------------------------------|
|-----------------------------------------------------------------|
|-----------------------------------------------------------------|
|-----2-------2-------2-----0---2-----2-------2-------2-----0---2-|
|-0-0-0---0-0-0---0-0-0---1---1-0-----0---0-0-0---0-0-0---1---1-0-|
  . .     . .     . .     . . .           . .     . .     . . .

|-----------------------------------------------------------------|
|-----------------------------------------------------------------|
|-----------------------------------------------------------------|
|-------------------------------------------------9---9---9---9---|
|-----2-------2-------2-----0---2-----2-------2---7---7---7---7---|
|-----0---0-0-0---0-0-0---1---1-0-----0---0-0-0-------------------|
          . .     . .     . . .           . .


3:14
|-----------------------------------------------------------------|
|-----------------------------------------------------------------|
|-----------------------------------------------------------------|
|-----9-------9-------9-----7---9-----9-------9-------9-----7---9-|
|-----7-------7-------7---8---8-7-----7-------7-------7---8---8-7-|
|-0-0-----0-0-----0-0---------------------0-0-----0-0-------------|
  . .     . .     . .     . . .           . .     . .     . . .

|------------------------------------------------|
|------------------------------------------------|
|------------------------------------------------|
|-----9-------9-------9-----7---9-----9-------9\-|
|-----7-------7-------7---8---8-7-----7-------7\-|
|--------0-0-----0-0----------------------0-0----|
         . .     . .      . . .           . .


3:22
|-----------------------------------------------------------------|
|-----------------------------------------------------------------|
|-----------------------------------------------------ph----------|
|-----------------6---5---4---2---3---3---3---3-------3-------3---|
|-3---4---5---6---4---3---2---0---1---1---1---1---1-0-----1-0-----|
|-1---2---3---4---------------------------------------------------|
                  .   .   .       .   .   .   .


3:27
|-----------------------------------------------------------------|
|-----------------------------------------------------------------|
|-----------------------------------------------------------------|
|---------7-8-7-8---------7-8-108-7-------7-8-7-8---------5-4-3---|
|-0-0-0-0---------0-0-0-0-----------0-0-0---------0-0-0-0-3-2-1---|
|-----------------------------------------------------------------|
  . . . .         . . . .           . . .         . . . .

|-----------------------------------------------------------------|
|-----------------------------------------------------------------|
|-----------------------------------------------------------------|
|---------7-8-7-8---------7-8-108-7-------7-8-7-8-----3-------3---|
|-0-0-0-0---------0-0-0-0-----------0-0-0---------0-0-1---0-0-1---|
|-----------------------------------------------------------------|
  . . . .         . . . .           . . .         . .     . .


3:37
|-----------------------------------------------------------------|
|-----------------------------------------------------------------|
|---------------------------------------------------------7-8-----|
|---------7-8-7-8---------7-8-108-7-------7-8-7-8-------7-----10--|
|-0-0-0-0---------0-0-0-0-----------0-0-0---------0-0-0-----------|
|-----------------------------------------------------------------|
  . . . .         . . . .           . . .         . . .

|-----------------------------------------------------------------|
|-----------------------------------------------------------------|
|---------------------------------------------------------8---7---|
|---------7-8-7-8---------7-8-108-7-------7-8-7-8-------7---10----|
|-0-0-0-0---------0-0-0-0-----------0-0-0---------0-0-0-----------|
|-----------------------------------------------------------------|   x2
  . . . .         . . . .           . . .         . . .



3:56
|-----------------------------------------------------------------|
|-----------------------------------------------------------------|
|-------------------------------------------------------------ph--|
|-2-------------------------------2---------------------------3---|
|-0---0-0-1p0-0-0-2p0-0-0-3p0-4h5-0---0-0-1p0-0-0-2p0-0-0-1-0-----|
|-----------------------------------------------------------------|   x3
      . .     . .     . .             . .     . .     . . . .


4:09
|-----------------------------------------------------------------|
|-----------------------------------------------------------------|
|-----------------------------------------------------------------|
|-2-------------------------------2-------------------------------|
|-0---0-0-1p0-0-0-2p0-0-0-3p0-4h5-0---0-0-1p0-0-0-2p0-0-0-3p0-0-0-|
|-----------------------------------------------------------------|
      . .     . .     . .             . .     . .     . .     . .


4:14
|-----------------------------------------------------------------|
|-----------------------------------------------------------------|
|-----ph------ph------ph--------------ph------ph------ph----------|
|-----3-------3-------3---------------3-------3-------3-----------|
|-1-0-----1-0-----1-0-----1-1-1-1-1-0-----1-0-----1-0-----1-1-1-1-|
|-----------------------------------------------------------------|
  . .     . .     . .     . . . . . .     . .     . .     . . . .

|-----------------------------------------------------------------|
|-----------------------------------------------------------------|
|-----ph------ph------ph--------------ph------ph------------------|
|-----3-------3-------3---------------3-------3---3---------------|
|-1-0-----1-0-----1-0-----1-1-1-1-1-0-----1-0-----1---------------|
|-----------------------------------------------------------------|
  . .     . .     . .     . . . . . .     . .


4:23
|-----------------------------------------------------------------|
|-----------------------------------------------------------------|
|-----------------------------------------------------------------|
|-----3-------4-------5-------6/7-----3-------4-------5-------6/7-|
|-00001---00002---00003---00004/5-00001---00002---00003---00004/5-|
|-----------------------------------------------------------------|   x2
  ....    ....    ....    ....    ....    ....    ....    ....


4:31
|-----------------------------------------------------------------|
|-----------------------------------------------------------------|
|-----------------------------------------------------------------|
|-----3-------4-------5-------6/7-----3-------4-------5-------6/7-|
|-0000----0000----0000----0000----0000----0000----0000----0000----|
|-----------------------------------------------------------------|
  ....    ....    ....    ....    ....    ....    ....    ....

|-----------------------------------------------------------------|
|-----------------------------------------------------------------|
|-----------------------------------------------------------------|
|-----3-------4-------5-------6/7-----3-------4-------------------|
|-0000----0000----0000----0000----0000----00002-------------------|
|-----------------------------------------------------------------|
  ....    ....    ....    ....    ....    ....


4:43
|-----------------------------------------------------|
|-----------------------------------------------------|
|-----------------------------------------------------|
|---------------------------------2-------------------|
|-0-1---0---------2----------------2------------12\\\-|
|-----3---1-3-0-1-0-----------------0-----------12\\\-|
      .   . . . .


4:46
|-----------------------------------------------------------------|
|-----------------------------------------------------------------|
|-----------------------------------------------------------------|
|-----2-------2-------2-----------------------2-------2-----------|
|-----2-------2-------2---------2-----2-------2-------2---------2-|
|-0-0-----0-0-----0-0-----1-0-1-0-----0---0-0-----0-0-----1-0-1-0-|
  . .     . .     . .     . . .           . .     . .     . . .

|-----------------------------------------------------------------|
|-----------------------------------------------------------------|
|-----------------------------------------------------------------|
|-------------------------------------------------9---9---9---9---|
|-----2-------2-------2---------2-----2-------2---7---7---7---7---|
|-----0---0-0-0---0-0-0---1-0-1-0-----0---0-0-0-------------------|
          . .     . .     . . .           . .

4:56 (Under solo from 2nd time)
|-----------------------------------------------------------------|
|-----------------------------------------------------------------|
|-----------------------------------------------------------------|
|-----------------------------------------------------------------|
|-----2-------2-------2---------2-----2-------2-------2---------2-|
|-0-0-0---0-0-0---0-0-0---1-0-1-0-----0---0-0-0---0-0-0---1-0-1-0-|
  . .     . .     . .     . . .           . .     . .     . . .

|-----------------------------------------------------------------|
|-----------------------------------------------------------------|
|-----------------------------------------------------------------|
|-------------------------------------------------9---9---9---9---|
|-----2-------2-------2---------2-----2-------2---7---7---7---7---|
|-----0---0-0-0---0-0-0---1-0-1-0-----0---0-0-0-------------------|   x2
          . .     . .     . . .           . .


5:13 (Under solo)
|-----------------------------------------------------------------|
|-----------------------------------------------------------------|
|-----------------------------------------------------------------|
|-----9-------9-------9-----7---9-----9-------9-------9-----7---9-|
|-----7-------7-------7---8---8-7-----7-------7-------7---8---8-7-|
|-0-0-----0-0-----0-0---------------------0-0-----0-0-------------|
  . .     . .     . .     . . .           . .     . .     . . .

|-----------------------------------------------------------------|
|-----------------------------------------------------------------|
|-----------------------------------------------------------------|
|-----9-------9-------9-----7---9-----9-------9---9---9---9---9---|
|-----7-------7-------7---8---8-7-----7-------7---7---7---7---7---|
|--------0-0-----0-0----------------------0-0---------------------|
         . .     . .      . . .           . .


5:22 (Under solo)
|-----------------------------------------------------------------|
|-----------------------------------------------------------------|
|-----------------------------------------------------------------|
|-----------------------------------------------------------------|
|-----2-------2-------2-----0---2-----2-------2-------2-----0---2-|
|-0-0-0---0-0-0---0-0-0---1---1-0-----0---0-0-0---0-0-0---1---1-0-|
  . .     . .     . .     . . .           . .     . .     . . .

|-----------------------------------------------------------------|
|-----------------------------------------------------------------|
|-----------------------------------------------------------------|
|-------------------------------------------------9---9---9---9---|
|-----2-------2-------2-----0---2-----2-------2---7---7---7---7---|
|-----0---0-0-0---0-0-0---1---1-0-----0---0-0-0-------------------|
          . .     . .     . . .           . .

5:30         <-----BASS----->
|-------------------------------|
|-------------------------------|
|-------------------------------|
|10------------3-----3---3333---|
|-8----------3---3--------------|
|------------------1------------|



5:36
|--------------------------------------------------------|
|--------------------------------------------------------|
|--------------------------------------------------------|
|---------------------------------------------10------10-|
|-8--1010--1212--1313--1212--1010--8-8--7-7-/8-8-------8-|
|--------------------------------------------------------|


|------------------------------|
|------------------------------|
|------------------------------|
|-----7-----ph-----------------|
|--8-----8--7~-------------\\\-|
|------------------------------|


END

  Visit MetalTabs.com for more metal tablature

bottom separator

Contact Us | Privacy Policy | Disclaimer | Legal Notice
Copyright © 2001-2014 MetalTabs.com. All Rights Reserved.