top separator

Home

Forum

What's New

Submit a Tab

FAQ

Links

Contact Us

Link to Us

MuSpy.com

MetalTabs.com logo

Bands

0-9

A

B

C

D

E

F

G

H

I

J

K

L

M

N

O

P

Q

R

S

T

U

V

W

X

Y

Z

Search

What

Where
 

StrommoussHeld - "D.E.C.E.P.T.I.O.N." Guitar Tab

Plain Text Version
More StrommoussHeld Tabs

Hits: 1095
Updated: 2006-10-29 06:32:14

 

By:

sendpm.gif

email.gif

Important note
This tab is available online because we obtained explicit permission from StrommoussHeld or their label.


#----------------------------------PLEASE NOTE---------------------------------#
#This file is the author's own work and represents their interpretation of the #
#song. You may only use this file for private study, scholarship, or research. #
#Unless specified otherwise, this is NOT an official tab from the band members.#
#------------------------------------------------------------------------------#

  Visit MetalTabs.com for more metal tablature
  
Band:  StrommoussHeld
Album: Behind the Curtain
Song:  Deception

Copyright (c)  Avantgarde Music 2003
Version 1.0 - 28.09.06

Transcribed By: eRyahXa0S/Darth Wojtex
Email:          darthwojtex@interia.pl


_pm   - palm mute
\ /   - slides
h     - hammer on
p     - pull off
t     - tap
ah/nh - harmonics
~     - vibrato
p
s     - pick slide
b     - bend



Tuning C#F#BEG#C#

clean guitar

|-------------|
|-----6-----8-|
|---------9---|
|---7---7-----|
|-5-----------|
|-------------|

riff 1 (clean guitar almost inaudible)

|--------|
|--------|
|-7-9-10-|
|-7-9-10-|
|-5-7-8--|
|--------|

riff 2 (distortion)


|-----------------------------------------------------------------------------|
|-----------------------------------------------------------------------------|
|----------------------------------10-----------------------------------------|
|-7-----------------9-------------------------------7-------------6-----------|
|-55555555555555555-7-777777777777-8-88888888888888-5-55555555555-4-444444444-|
|-----------------------------------------------------------------------------|

end

|---|
|---|
|---|
|-7-|
|-5-|
|---|

  Visit MetalTabs.com for more metal tablature

bottom separator

Contact Us | Privacy Policy | Disclaimer | Legal Notice
Copyright © 2001-2014 MetalTabs.com. All Rights Reserved.