top separator

Home

Forum

FAQ

Contact Us

Link to Us

MetalTabs.com logo

Bands

0-9

A

B

C

D

E

F

G

H

I

J

K

L

M

N

O

P

Q

R

S

T

U

V

W

X

Y

Z

Gorgoroth - "Blod Og Minne" Guitar Tab

Plain Text Version
More Gorgoroth Tabs

Hits: 928
Rated: 4.00 out of 5 (1 vote)
Updated: 2006-10-29 06:10:56

By:


#----------------------------------PLEASE NOTE---------------------------------#
#This file is the author's own work and represents their interpretation of the #
#song. You may only use this file for private study, scholarship, or research. #
#Unless specified otherwise, this is NOT an official tab from the band members.#
#------------------------------------------------------------------------------#

  Visit MetalTabs.com for more metal tablature
  
Band:  Gorgoroth
Album: Twilight of the Idols (In Conspiracy With Satan)
Song:  Blod Og Minne

Copyright   Nuclear Blast GmbH 2003
Version 1.0 - 9/19/06

Transcribed By: Kevin
Email:          thescornedofearth@hotmail.com


.  - palm mute
'  - slight palm mute
/  - slide up to
h  - hammer on
p  - pull off



Tuning E A D G B E

Riff 1a (tremolo picking)
|--------------------------------------|
|--------------------------------------|
|--------------------------------------|
|--------------------------------------|
|-5-------7----h10p7h10p7-8-5-7-8-4----|
|--------------------------------------|

|------------------------------------------|
|------------------------------------------|
|------------------------------------------|
|------------------------------------------|
|-5-------7----h10p7h10p7-8-5-7-8----------|
|---------------------------------6-10-7-9-|

|--------------------------------------|
|--------------------------------------|
|--------------------------------------|
|--------------------------------------|
|-5-------7----h10p7h10p7-8-5-7-8-4----|
|--------------------------------------|

|----------------------------------------------------|
|----------------------------------------------------|
|----------------------------------------------------|
|----------------------------------------------------|
|-5-------7----h10p7h10p7-8-5-7-8----------4--8--5-7-|
|---------------------------------6-10-7-9-----------|


Riff 2 (tremolo picking)
|------------|
|------------|
|------------|
|------------|x4
|-8-----7-7--|
|-6-----6-5--|


Riff 1b (tremolo picking)
|--------------------------------------|
|--------------------------------------|
|--------------------------------------|
|--------------------------------------|
|-5-------7----h10p7h10p7-8-5-7-8-4----|
|--------------------------------------|

|------------------------------------------|
|------------------------------------------|
|------------------------------------------|
|------------------------------------------|
|-5-------7----h10p7h10p7-8-5-7-8----------|
|---------------------------------6-10-7-9-|

|--------------------------------------|
|--------------------------------------|
|--------------------------------------|
|--------------------------------------|
|-5-------7----h10p7h10p7-8-5-7-8-4----|
|--------------------------------------|

|----------------------------------------------------|
|----------------------------------------------------|
|----------------------------------------------------|
|----------------------------------------------------|
|-5-------7----h10p7h10p7-8-5-7-8----------4--8--7-5-|
|---------------------------------6-10-7-9-----------|


Riff 2 (tremolo picking)
|------------|
|------------|
|------------|
|------------|x4
|-8-----7-7--|
|-6-----6-5--|


Riff 3a (tremolo picking)
|---------------------------|
|---------------------------|
|---------------------------|
|---------------------------|x2
|-9-8--9--8--2--8-8-9-11-14-|
|-7-6--7--6--0--7-6-7--9-12-|

Riff 3b
|----------------------------------------------------------------------|
|----------------------------------------------------------------------|
|----------------------------------------------------------------------|
|----------------------------------------------------------------------|
|-9-9-9-11-11-11-12-12-12-14-14-14-12-12-12-14-14-14-16-16-16-17-17-17-|
|-7-7-7--9--9--9-10-10-10-12-12-12-10-10-10-12-12-12-14-14-14-15-15-15-|


Riff 4 Behind Drums (tremolo picking)
|-------------------|
|-------------------|
|-7---------5--3--6-|
|-------------------|x4
|-------------------|
|-------------------|

Riff 5
|-----------------------------------------
|-----------------------------------------
|-7-------------7-------------------------
|-7-------------7-----5-------------------
|-5-0-000-0-000-5-000-3-3-333-3-333-3-333-
|-----------------------------------------
    . ... . ...   ...   . ... . ... . ...

 --------------------------------------|
 --------------------------------------|
 --------------------------------------|
 3-----------------6-------------------|x4
 1-111-1-111-1-111-4-4-444-4-444-4-444-|
 --------------------------------------|
   ... . ... . ...   . ... . ... . ...


Riff 6 - After 8th time play not in parenthesis and then do end.
|---------------0----------------0-----|
|----------------0--------------0------|
|--------------------------------------|
|--7------6/7-7----7------6/7-7----(7)-|x8
|--5-5555-4/5-5----5-5555-4/5-5----(5)-|
|--------------------------------------|
          . .             . .   ''


End
|---|
|---|
|---|
|-6-|
|-4-|
|---|


This is my first tab. I am pretty sure I got it all. It is a fun song to play,
so have fun everyone. Any questions or comments e-mail me

  Visit MetalTabs.com for more metal tablature

bottom separator

Contact Us | Privacy Policy | Disclaimer
Copyright © 2001-2014 MetalTabs.com. All Rights Reserved.