top separator

Home

Forum

What's New

Submit a Tab

FAQ

Links

Contact Us

Link to Us

MetalTabs.com logo

Bands

0-9

A

B

C

D

E

F

G

H

I

J

K

L

M

N

O

P

Q

R

S

T

U

V

W

X

Y

Z

Search

What

Where
 

Destruction - "Antichrist" Guitar Tab

Plain Text Version
More Destruction Tabs

Hits: 2602
Rated: 4.50 out of 5 (2 votes)
Updated: 2006-10-29 06:06:30

 

By:

Dahmers Fridge

sendpm.gif

email.gif

Important note
This tab is available online because we obtained explicit permission from Destruction or their label.


#----------------------------------PLEASE NOTE---------------------------------#
#This file is the author's own work and represents their interpretation of the #
#song. You may only use this file for private study, scholarship, or research. #
#Unless specified otherwise, this is NOT an official tab from the band members.#
#------------------------------------------------------------------------------#

  Visit MetalTabs.com for more metal tablature
  
Band:  Destruction
Album: Bestial Invasion From Hell(demo)
Song:  Antichrist(demo)

Copyright (c)  (RECORD LABEL) (1984)
Version 1.0 - (17/09/06)
Transcribed By: Steve
Email:          stephen.elvidge1@ntlworld.com


.  - palm mute           /  - slide up to
\  - slide down to       ~  - vibrato
h  - hammer on           b  - Bend
p  - pull off            Suffixes for bend
t  - tap                 f  - full bend    h - half bend
ph - pinched harmonic    q  - quarter bend t - tap bend
*  - see comment         ^  - Hold bend    r release bend
x  - Stuccatto           ~  - vibrato bend
,  - slight palm mute    () - ghost note, sustained note
"  - tremolo note        <> - harmonic
pb - pre bend

Tuning E A D G B E

 Intro: drums on own

|------------------------------------|
|------------------------------------|
|------------------------------------|
|---12-12--(12)--\1010-(10)-\7-7-7/--|
|-x-10-10--(10)--\8-8--(8)--\5-5-5/--|
|------------------------------------|


 Riff A


   [---PM--] [---PM--] [---PM--]  [---PM--]
|------------------------------------------|
|------------------------------------------|
|------------------------------------------|
|-9---------9---------9---------9----------|
|-7---------7---------7---------7----------|
|---0-0-0-0---0-0-0-0---0-0-0-0---0-0-0-0--|

|----------------------------------|
|----------------------------------|
|----------------------------------|
|-12-12--(12)--\1010-(10)-\7-7-7/--|
|-10-10--(10)--\8-8--(8)--\5-5-5/--|
|----------------------------------|

 Rpt 3 X

   [---PM--] [---PM--] [---PM--]  [---PM--]
|------------------------------------------|
|------------------------------------------|
|------------------------------------------|
|-9---------9---------9---------9----------|
|-7---------7---------7---------7----------|
|---0-0-0-0---0-0-0-0---0-0-0-0---0-0-0-0--|

 Riff B

   [---PM--]       [---PM--]       [---PM--]        PM
|---------------------------------------------------------------|
|---------------------------------------------------------------|
|---------------------------------------------------------------|
|-2---------5\4---2---------5\4---2---------5\4---9----5-7\4-4--|
|-2---------3\2---2---------3\2---2---------3\2---7----3-5\2-2--|
|-0-0-0-0-0-----3-0-0-0-0-0-----3-0-0-0-0-0-----3---00----------|

   [---PM--]       [---PM--]       [---PM--]        PM
|-----------------------------------------------------------|
|-----------------------------------------------------------|
|-----------------------------------------------------------|
|-2---------5\4---2---------5\4---2---------5\4---9----5-7--|
|-2---------3\2---2---------3\2---2---------3\2---7----3-5--|
|-0-0-0-0-0-----3-0-0-0-0-0-----3-0-0-0-0-0-----3---00------|

 Rpt above

 Verse


|----------------------------------|
|----------------------------------|
|----------------------------------|
|-12-12--(12)--\1010-(10)-\7-7-7/--|
|-10-10--(10)--\8-8--(8)--\5-5-5/--|
|----------------------------------|

 Rpt Main Riff 3 X
 Rpt Riff B 2 X

|----------------------------------|
|----------------------------------|
|----------------------------------|
|-12-12--(12)--\1010-(10)-\7-7-7/--|
|-10-10--(10)--\8-8--(8)--\5-5-5/--|
|----------------------------------|

 Rpt Main Riff 3 X


|-----------------------------------|
|-----------------------------------|
|-----------------------------------|
|-9-------------(9)-----------------|
|-7-------------(7)-----------------|
|-----------------------------------|


|--------------------------|
|--------------------------|
|--------------------------|
|-12-12---\1010---\7-7-7/--|
|-10-10---\8-8----\5-5-5/--|
|--------------------------|

 [-------PM-------]
|------------------|
|------------------|
|------------------|
|------------------|
|------------------|
|-0000000000000000-|

 Rpt above 4 X

 Riff C

   [--PM--]  [-PM-]  [-PM-]
|-----------------------------------|
|-----------------------------------|
|-----------------------------------|
|-9--------5-------9-------5\4/10\--|
|-7--------3-------7-------3\2/8-\--|
|---000000----0000----0000----------|

   [--PM--]  [-PM-]  [-PM-]
|-------------------------------------|
|-------------------------------------|
|-------------------------------------|
|-9--------5-5------9-9------12\11\10-|
|-7--------3-3------7-7------10\9-\8--|
|---000000-----0000----0000-----------|

 Rpt above

 Riff D

  [-PM-]  [-PM-]
|------------------------|
|------------------------|
|------------------------|
|------8-8---------------|
|-0000-6-6-0000-5-5-5-5--|
|---------------3-3-3-3--| Rpt 4 X

 Riff E

|---------------|
|---------------|
|---------------|
|------------7--|
|-5--(5)--\3-5--|
|-3--(3)--\1----|

 [---------PM---------]
|----------------------|
|----------------------|
|----------------------|
|----------------------|
|------7----7----7-----|
|-0-00-0-00-0-00-0-00--|

 Rpt above 4 X
 Rpt Riff C 2 x
 Rpt Riff D 4 X

 Backing for solo is Riff A 6 X

|---------------|
|---------------|
|---------------|
|------------7--|
|-5--(5)--\3-5--|
|-3--(3)--\1----|

 Riff E 4 X



|-------------------------------------------------------------------|
|-------------------------------------------------------------------|
|-------------------------------------------------------------------|
|-9-9-9-9-9-9-9-9-9-9-9-9-9-9-9-9-ad lib guitar noise etc--------9\-|
|-7-7-7-7-7-7-7-7-7-7-7-7-7-7-7-7--------------------------------7\-|
|-------------------------------------------------------------------|





END

  Visit MetalTabs.com for more metal tablature

bottom separator

Contact Us | Privacy Policy | Disclaimer | Legal Notice
Copyright © 2001-2014 MetalTabs.com. All Rights Reserved.