top separator

Home

Forum

What's New

Submit a Tab

FAQ

Links

Contact Us

Link to Us

MetalTabs.com logo

Bands

0-9

A

B

C

D

E

F

G

H

I

J

K

L

M

N

O

P

Q

R

S

T

U

V

W

X

Y

Z

Search

What

Where
 

Burzum - "Stemmen Fra Tarnet" Guitar Tab

Plain Text Version
More Burzum Tabs

Hits: 4845
Rated: 4.83 out of 5 (6 votes)
Updated: 2006-10-29 06:05:25

 

By:

Shenmoo666

sendpm.gif

email.gif

Important note
This tab is available online because we obtained explicit permission from Burzum or their label.


#----------------------------------PLEASE NOTE---------------------------------#
#This file is the author's own work and represents their interpretation of the #
#song. You may only use this file for private study, scholarship, or research. #
#Unless specified otherwise, this is NOT an official tab from the band members.#
#------------------------------------------------------------------------------#

  Visit MetalTabs.com for more metal tablature
  
Band:  Burzum
Album: Aske
Song:  Stemmen Fra Tårnet

Copyright (c)  Deathlike Silence Productions, 1993
Version 1.0 - 09/16/2006

Transcribed By: Shenocide
Email:          uberfeasles@hotmail.com

I believe that this tab is perfect, although I could be wrong.
If you have any feedback or questions than email me and i'll
try toreply ASAP.


.  - palm mute           /  - slide up to
\  - slide down to       ~  - vibrato
h  - hammer on           b  - Bend
p  - pull off            Suffixes for bend
t  - tap                 f  - full bend    h - half bend
ph - pinched harmonic    q  - quarter bend t - tap bend
*  - see comment         ^  - Hold bend    r release bend
x  - Stuccatto           ~  - vibrato bend
,  - slight palm mute    () - ghost note, sustained note
"  - tremolo note        <> - Trill

Standard Tuning
Tuning E A D G B e

Intro (Fade in)

|-------------------------------------------------------------------|
|-------------------------------------------------------------------|
|-------------------------------------------------------------------|
|-(3)--------3--------3--------3--------3--------3------------------|
|-(3)--------3--------3--------3--------3--------3------------------|
|-(1)--------1--------1--------1--------1--------1------------------|

*Riff 1 (6x)

|-------------------------------------------------------------------|
|-------------------------------------------------------------------|
|-------------------------------------------------------------------|
|-6-6-6\5-5/6-6-6-6/8-8/9-6-6-6\5-5/6-6-6---------------------------|
|-4-4-4\3-3/4-4-4-4/6-6/7-4-4-4\3-3/4-4-4---7-7---------------------|
|-----------------------------------------5-5-5---------------------|
                                          .
*Riff 2 (4x)

|-------------------------------------------------------------------|
|-------------------------------------------------------------------|
|-------------------------6-6-6-6/8-8\6-6\5-5/6-6\5-----------------|
|-3-3-3-3-3h4-4p3-3h4-4p3-4-4-4-4/6-6\4-4\3-3/4-4\3-----------------|
|-1-1-1-1-1---1---1---1---------------------------------------------|
|-------------------------------------------------------------------|

*Riff 3 (2x)

|-------------------------------------------------------------------|
|-------------------------------------------------------------------|
|-------------------------------------------------------------------|
|-3-3-3h4-4p3-4-4-4h5-5p4\3-3-3-3h4-4p3-6-6-6\5-5-5-----------------|
|-1-1-1---1---2-2-2---2\--1-1-1-1---1---4-4-4\3-3-3-----------------|
|-------------------------------------------------------------------|

Riff 1 (4x)

Riff 2 (8x)

Riff 3 (4x)

Riff 1 (2x)

Bridge

|-------------------------------------------------------------------|
|-------------------------------------------------------------------|
|-------------------------------------------------------------------|
|-6--------6--------6--------6--------6-----------------------------|
|-6--------6--------6--------6--------6-----------------------------|
|-4--------4--------4--------4--------4/19\4------------------------|

Bridge Riff (8x)

|-------------------------------------------------------------------|
|-------------------------------------------------------------------|
|-------------------------------------------------------------------|
|-6-6-6-6-6-6-6-6/7-7-7-7-7-7-7-7-7\6-------------------------------|
|-6-6-6-6-6-6-6-6/7-7-7-7-7-7-7-7-7\6-------------------------------|
|-4-4-4-4-4-4-4-4/5-5-5-5-5-5-5-5-5\4-------------------------------|

Riff 2 (8x)

Riff 3 (8x)

Riff 1 (1.5x) (Song ends abruptly at the half of this riff on the
second time)



*Note: On Riff 1 there is a palm muted 5 by itself. This is a
transition note that may or may not be heard. You can either ignore
it, or do an alternate transition by simply pulling off the 4 to go
to a 0, and then of course the two power chords that follow to
end the riff.

*Note 2: On Riffs 2 and 3 you may have been confused by the hammer ons
and pull offs so i'll explain. In essence you could easily just
play the power chords without the hammer ons and pull offs bothering
you since they're hard to notice in the song. The thing is, they're
meant to be very subtle, so if you do play them it shouldn't be
well heard. It's almost like an accidental note being played or
a background noise in one's mind. In short, if you're going to do
these hammer ons and pull offs, just do it very lightly and don't
focus on them too much.

End note: I'm not sure why the song comes to a sudden halt at the
end, but if you're covering this song or playing it for
someone and you don't want to have a crappy ending then a fitting
ending in my opinion would be slowing down the last notes of the
last riff and holding them while fading out slowly. Of course, you
could also make up your own...

END

  Visit MetalTabs.com for more metal tablature

bottom separator

Contact Us | Privacy Policy | Disclaimer | Legal Notice
Copyright © 2001-2014 MetalTabs.com. All Rights Reserved.