top separator

Home

Forum

What's New

Submit a Tab

FAQ

Links

Contact Us

Link to Us

MetalTabs.com logo

Bands

0-9

A

B

C

D

E

F

G

H

I

J

K

L

M

N

O

P

Q

R

S

T

U

V

W

X

Y

Z

Search

What

Where
 

Neurosis - "Stones From The Sky" Guitar Tab

Plain Text Version
More Neurosis Tabs

Hits: 4521
Rated: 4.33 out of 5 (3 votes)
Updated: 2006-10-29 06:03:22

 

By:

Fat Bastard

sendpm.gif

email.gif

Important note
This tab is available online because we obtained explicit permission from Neurosis or their label.


#----------------------------------PLEASE NOTE---------------------------------#
#This file is the author's own work and represents their interpretation of the #
#song. You may only use this file for private study, scholarship, or research. #
#Unless specified otherwise, this is NOT an official tab from the band members.#
#------------------------------------------------------------------------------#

  Visit MetalTabs.com for more metal tablature
  
Band:  Neurosis
Album: A Sun that Never Sets
Song:  Stones from the sky

Copyright (R)  (Neurot Recordings) (2001)
Version 1.5 - (09/15/2006)

Transcribed By: Fat Bastard / pink_belly
Email:          jms_destroyer@hotmail.com

Tuning: Standard/E (E, A, D, G, B, e)
I know they switch tunings to drop A and such, but it sounds decent in
Standard as well with some light gauge strings, maybe even better.


Riff 1, opening chord [After 1st Bell sample]
|------------|-----------|----------|------------|>
|-3---3-3-3-3|3---3-3-3-3|3--3-3-3-3|3---3-3-3-3-|>
|-2---2-2-2-0|2---2-2-2-0|2--2-2-2-0|2---2-2-2-2-|>
|-0---0-0-0-0|0---0-0-0-0|0--0-0-0-0|0---0-0-0-0-|>
|------------|-----------|----------|------------|>
|------------|-----------|----------|------------|>

|-------------------------------------------------|
|-3---3-3-3-3-3---3-3-3-3-3---3-3-3-3-3---3-3-3-3-|
|-2---2-2-2-0-2---2-2-2-0-2---2-2-2-0-2---2-2-2-2-|
|-x---x-x-x-x-x---x-x-x-x-x---x-x-x-x-x---x-x-x-x-|
|-3---3-3-3-3-3---3-3-3-3-3---3-3-3-3-3---3-3-3-0-|
|-------------------------------------------------|

Riff 2, both guitars, x7
|--------------------|--------------------|
|--------------------|--------------------|
|-------------2------|-------------2------|
|-------5-5-5-5------|-------5-5-5-5--5---|
|-3-3-3-------3------|-2-2-2-------2----2-|
|--------------------|--------------------|

One more time, making it x8, last one is played…
|--------------------|-------------------------|
|--------------------|-------------------------|
|-------------2------|---------------2-2-2-2-2-|
|-------5-5-5-5------|---------------2-2-2-2-2-|
|-3-3-3-------3------|-2-2-2-2-2-2-2-0-0-0-0-0-|
|--------------------|-------------------------|


Back to riff 1, Guitar 1
|------------|-----------|-----------|------------|>
|-3---3-3-3-3|3---3-3-3-3|3---3-3-3-3|3---3-3-3-3-|>
|-2---2-2-2-0|2---2-2-2-0|2---2-2-2-0|2---2-2-2-2-|>
|-0---0-0-0-0|0---0-0-0-0|0---0-0-0-0|0---0-0-0-0-|>
|------------|-----------|-----------|------------|>
|------------|-----------|-----------|------------|>

|------------|-----------|-----------|------------|
|-3---3-3-3-3|3---3-3-3-3|3---3-3-3-3|3---3-3-3-3-|
|-2---2-2-2-0|2---2-2-2-0|2---2-2-2-0|2---2-2-2-2-|
|-x---x-x-x-x|x---x-x-x-x|x---x-x-x-x|x---x-x-x-x-|
|-3---3-3-3-3|3---3-3-3-3|3---3-3-3-3|3---3-3-3-0-|
|------------------------|-----------|------------|

Riff 1 Guitar 2 This riff is sorta just a fill for the atmosphere
|------------|-----------|-----------|------------|>
|------------|-----------|-----------|------------|>
|------------|-----------|-----------|------------|>
|-7----------|-7---------|-7---------|--7--7--7---|>
|-5----------|-5---------|-5---------|--5--5--5---|>
|------------|-----------|-----------|------------|>

|------------|-----------|-----------|------------|>
|------------|-----------|-----------|------------|>
|------------|-----------|-----------|------------|>
|-5----------|-----------|-5---------|------------|>
|-3----------|-----------|-3---------|------------|>
|------------|-----------|-----------|------------|>

Back again to Riff 2

Riff 3
|------------|-----------|-----------|-----------|>
|------------|-----------|-----------|-----------|>
|-7-7-7-7-7-5|7-7-7-7-7-5|7-7-7-7-7-5|7-7-7-7-7-7|>
|-7-7-7-7-7-5|7-7-7-7-7-5|7-7-7-7-7-5|7-7-7-7-7-7|>
|-5-5-5-5-5-3|5-5-5-5-5-3|5-5-5-5-5-3|5-5-5-5-5-5|>
|------------|-----------|-----------|-----------|>

|------------|-----------|-----------|-----------|>
|------------|-----------|-----------|-----------|>
|-5-5-5-5-5-5|5-5-5-5-5-5|5-5-5-5-5-5|3-3-3-3-3-0|>
|-5-5-5-5-5-5|5-5-5-5-5-5|5-5-5-5-5-5|3-3-3-3-3-0|>
|-3-3-3-3-3-0|3-3-3-3-3-0|3-3-3-3-3-0|3-3-3-3-3-0|>
|------------|-----------|-----------|-----------|>

Lead in riff 3
|e|------------|-----------|-----------|-----------|>
|B|-88888888888|88888888888|99999988888|88888899999|>
|G|------------|-----------|-----------|-----------|>

|e|------------|-----------|-----------|-----------|
|B|-88888877777|77777888888|99999988888|88888877777|
|G|------------|-----------|-----------|-----------|

Break is the same as riff 3, just no shifting between chords
|------------|-----------|-----------|-----------|>
|------------|-----------|-----------|-----------|>
|-7-7-7-7-7-7|7-7-7-7-7-7|7-7-7-7-7-7|7-7-7-7-7-7|>
|-7-7-7-7-7-7|7-7-7-7-7-7|7-7-7-7-7-7|7-7-7-7-7-7|>
|-5-5-5-5-5-5|5-5-5-5-5-5|5-5-5-5-5-5|5-5-5-5-5-5|>
|------------|-----------|-----------|-----------|>

|------------|-----------|-----------|-----------|
|------------|-----------|-----------|-----------|
|-5-5-5-5-5-5|5-5-5-5-5-5|5-5-5-5-5-5|5-5-5-5-5-5|
|-5-5-5-5-5-5|5-5-5-5-5-5|5-5-5-5-5-5|5-5-5-5-5-5|
|-3-3-3-3-3-3|3-3-3-3-3-3|3-3-3-3-3-3|3-3-3-3-3-3|
|------------|-----------|-----------|-----------|

Then riff again with the lead.

And its basically that for another 3 minutes at least.
I will make a more detailed tab later.

  Visit MetalTabs.com for more metal tablature

bottom separator

Contact Us | Privacy Policy | Disclaimer | Legal Notice
Copyright © 2001-2014 MetalTabs.com. All Rights Reserved.