top separator

Home

Forum

What's New

Submit a Tab

FAQ

Links

Contact Us

Link to Us

MuSpy.com

MetalTabs.com logo

Bands

0-9

A

B

C

D

E

F

G

H

I

J

K

L

M

N

O

P

Q

R

S

T

U

V

W

X

Y

Z

Search

What

Where
 

Jungle Rot - "Decapitated" Bass Tab

Plain Text Version
More Jungle Rot Tabs

Hits: 1843
Updated: 2006-10-26 08:31:40

 

By:

epitaph

sendpm.gif

email.gif

Important note
This tab is available online because we obtained explicit permission from Jungle Rot or their label.


#----------------------------------PLEASE NOTE---------------------------------#
#This file is the author's own work and represents their interpretation of the #
#song. You may only use this file for private study, scholarship, or research. #
#Unless specified otherwise, this is NOT an official tab from the band members.#
#------------------------------------------------------------------------------#

  Visit MetalTabs.com for more metal tablature
  
Artist: Jungle Rot
Album: Skin the Living
Song: Decapitated

Copyright (c) Death Records 1995
Version 1.0 - 12th of September, 2006

Tabbed by: Lassi Nurminen
E-Mail: Gaborik10@hotmail.com / Gaborik@welho.com

Tuning: BEAD

0:00
|------------|
|------------| Three
|------------| Times
|-1---0--0-0-|

|-------|
|-------|
|-------|
|-1---0-|

0:08
      Five times       ---    Sixth time      ---      Four times
|------------------||------------------||------------------|
|------------------||------------------||------------------|
|------------------||------------------||------------------|
|-0-0-0-1--0-0-0-3-||-0-0-0-1--5-5-5-5-||-0-0-0-1--0-0-0-3-|

0:33
|--------------------------|
|--------------------------| Three
|--------------------------| Times
|-5--4--3--0-0-0-0-0-0-0-0-|

0:46
|------------------|
|------------------|
|------------------|
|-5--4--3--0---0-1-|

0:50
|--------------|
|--------------| Four
|--------------| Times
|-0--0--0--0-1-|

1:00
      Three times     ---    Fourth time     ---      Four times
|------------------||------------------||------------------|
|------------------||------------------||------------------|
|------------------||------------------||------------------|
|-0-0-0-1--0-0-0-3-||-0-0-0-1--5-5-5-5-||-0-0-0-1--0-0-0-3-|

1:17
|--------------------------|
|--------------------------| Four
|--------------------------| Times
|-5--4--3--0-0-0-0-0-0-0-0-|

1:32
|------------------|
|------------------| Three
|------------------| Times
|-0-0-0-1--0-0-0-3-|

|------------------|
|------------------|
|----------------5-|
|-0-0-0-1--0-0-0---|

Thats it!

  Visit MetalTabs.com for more metal tablature

bottom separator

Contact Us | Privacy Policy | Disclaimer | Legal Notice
Copyright © 2001-2014 MetalTabs.com. All Rights Reserved.