top separator

Home

Forum

What's New

Submit a Tab

FAQ

Links

Contact Us

Link to Us

MuSpy.com

MetalTabs.com logo

Bands

0-9

A

B

C

D

E

F

G

H

I

J

K

L

M

N

O

P

Q

R

S

T

U

V

W

X

Y

Z

Search

What

Where
 

Jungle Rot - "Screaming for life" Bass Tab

Plain Text Version
More Jungle Rot Tabs

Hits: 1629
Updated: 2006-10-26 08:31:01

 

By:

epitaph

sendpm.gif

email.gif

Important note
This tab is available online because we obtained explicit permission from Jungle Rot or their label.


#----------------------------------PLEASE NOTE---------------------------------#
#This file is the author's own work and represents their interpretation of the #
#song. You may only use this file for private study, scholarship, or research. #
#Unless specified otherwise, this is NOT an official tab from the band members.#
#------------------------------------------------------------------------------#

  Visit MetalTabs.com for more metal tablature
  
Artist: Jungle Rot
Album: Skin the Living
Song: Screaming for Life

Copyright (c) Death Records 1995
Version 1.0 - 12th of September, 2006

Tabbed by: Lassi Nurminen
E-Mail: Gaborik10@hotmail.com / Gaborik@welho.com

Tuning: BEAD

0:00
|------------------------------|
|------------------------------| Four
|------------------------------| Times
|-4-4-4-4-3-3-3-3-2-2-2-2-2--1-|

0:10
|------------------------------|
|------------------------------| Eight
|------------------------------| Times
|-5-5-5-5-4-4-4-4-3-3-3-3-3--2-|

0:29
|---------------|
|---------------| Four
|-2-2-1-2-2-1---| Times
|-------------1-|

0:34
|------------------------------|
|------------------------------| Eight
|------------------------------| Times
|-5-5-5-5-4-4-4-4-3-3-3-3-3--2-|

0:53
|---------------|
|---------------| Four
|-2-2-1-2-2-1---| Times
|-------------1-|

0:58
|--------------|
|--------------| 28 Times
|--------------| (May have lost count though..)
|-0-0-3\2--1-1-|

1:40
|---------------------------------|
|---------------------------------|
|---------------------------------|
|-5-5-5-5-5-5-5-5-4-4-4-4-3-3-3-3-|

1:43
|--------------|
|--------------| Twice
|--------------|
|-0-0-3\2--1-1-|

1:46
|---------------------------------|
|---------------------------------|
|---------------------------------|
|-5-5-5-5-5-5-5-5-4-4-4-4-3-3-3-3-|

1:49
|--------------|
|--------------| Twice
|--------------|
|-0-0-3\2--1-1-|

1:52
|---------------------------------|
|---------------------------------| Three
|---------------------------------| Times
|-5-5-5-5-5-5-5-5-4-4-4-4-3-3-3-3-|

|---------------------------|
|---------------------------|
|---------------------------|
|-5-5-5-5-5-5-5-5-4-4-4-4-3-|

That's it!

  Visit MetalTabs.com for more metal tablature

bottom separator

Contact Us | Privacy Policy | Disclaimer | Legal Notice
Copyright © 2001-2014 MetalTabs.com. All Rights Reserved.