#----------------------------------PLEASE NOTE---------------------------------#
#This file is the author's own work and represents their interpretation of the #
#song. You may only use this file for private study, scholarship, or research. #
#Unless specified otherwise, this is NOT an official tab from the band members.#
#------------------------------------------------------------------------------#

  Visit MetalTabs.com for more metal tablature
  
Band:  Impetigo
Album: Horror of the Zombies
Song:  Staph Terrorist

By: Evil
Email:blackmetal_norway@hotmail.com


Iím not sure about the whole tab

Intro. Is played before the bass intro a few times
|---------------------------------------|
|---------------------------------------|
|---------------------------------------|
|---------------------------------------|
|-2-------------------------------------|
|-0-------------------------------------|


Riff a
|---------------------------------------|
|---------------------------------------|
|---------------------------------------|
|---------------------------------------|
|-------------3--------------4/3\4------|
|-0-0-0-0-0-0-1--0-0-0-0-0-0-2/1\2------|
  . . . . . .    . . . . . .

Riff a1  this is played faster
|---------------------------------------|
|---------------------------------------|
|---------------------------------------|
|---------------------------------------|
|--------------3---------------4/3\4----|
|-000000000000-1--000000000000-2/1\2----|
  ............    ............

Riff b  X3                      Ending
|------------------|--------------------|
|------------------|--------------------|
|------------------|--------------------|
|------------------|--------------------|
|------------------|--------------------|
|-0"---4"---6"--5"-|--0"-5"---0"-1"-----|

Riff c   First time sound like this I think.
|------------------------------------------------|
|------------------------------------------------|
|------------------------------------------------|
|------------------------------------------------|
|--------0p3p2----------0p3-0p5p4--2-2-2-2-2-2-2-|
|-1-1-1-----------1-1-1------------0-0-0-0-0-0-0-|
     . . .           . . .

Riff c1
|--------------------------------------------|
|--------------------------------------------|
|--------------------------------------------|
|--------------------------------------------|
|--------0p3p2----------0p3p2--2-2-2-2-2-2-2-|
|-1-1-1-----------1-1-1--------0-0-0-0-0-0-0-|
  . . .           . . .

No song structure.

  Visit MetalTabs.com for more metal tablature