top separator

Home

Forum

What's New

Submit a Tab

FAQ

Links

Contact Us

Link to Us

MuSpy.com

MetalTabs.com logo

Bands

0-9

A

B

C

D

E

F

G

H

I

J

K

L

M

N

O

P

Q

R

S

T

U

V

W

X

Y

Z

Search

What

Where
 

Napalm Death - "All Hail The Grey Dawn" Guitar Tab

Plain Text Version
More Napalm Death Tabs

Hits: 2769
Rated: 4.00 out of 5 (3 votes)
Updated: 2006-10-26 04:21:29

 

By:

goatman

sendpm.gif

email.gif

Important note
This tab is available online because we obtained explicit permission from Napalm Death or their label.


#----------------------------------PLEASE NOTE---------------------------------#
#This file is the author's own work and represents their interpretation of the #
#song. You may only use this file for private study, scholarship, or research. #
#Unless specified otherwise, this is NOT an official tab from the band members.#
#------------------------------------------------------------------------------#

  Visit MetalTabs.com for more metal tablature
  
Band:  (NAPALM DEATH)
Album: (THE CODE IS RED...LONG LIVE THE CODE)
Song:  (ALL HAIL THE GREY DAWN)

Copyright (c)  (CENTURY MEDIA) (2005)
Version 1.0 - (2005)

Transcribed By: (GOATMAN)
Email:          (VIRUS010891@AOL.COM)


.  - palm mute
\  - slide down to
() - ghost note, sustained note


Tuning: STANDARD 1.5 STEPS DOWN
                                                                   X3
|--------------------------------------------|----------------------|
|--------------------------------------------|.--------------------.|
|--------------------------------------------|----------------------|
|-(3)-----9--(3)--------(3)----9--(3)--------|----------------------|
|-(1)-----7--(1)-----3--(1)----7--(1)-----10-|.------------7777----.|
|----0000-------0000-1-----0000------0000-8--|-666666666000---------|
     ....       ....       ....      ....               ...
                                        X3
|------------------|---------------------|--------------------------|
|------------------|.-------------------.|--------------------------|
|------------------|---------------------|--------------------------|
|------------------|---------------------|--------------------------|
|------------------|.-------------7777--.|--------------------------|
|-6666666660008888-|--666666666000-------|-6666666660008888---------|
           ...                 ...                  ...

|-------------------------------------------------------------------|
|-------------------------------------------------------------------|
|-------------------------------------------------------------------|
|-----77-----77------77------8888------55-----55------55------6666--|
|-------------------------------------------------------------------|
|6666----6666----6666----6666------4444---4444----4444----4444------|
 ....    ....    ....    ....      ....   ....    ....    ....
                     X2                   X2                       X3
|---------------------|--------------------|------------------------|
|.-------------------.|.------------------.|.----------------------.|
|---------------------|--------------------|------------------------|
|------7(7)----10(10)-|------5(5)----------|------------------------|
|.-------------------.|.-------------6(6)-.|.-------------7777-----.|
|--6666----6666-------|--4444----4444------|--666666666000----------|
   ....    ....          ....    ....                  ...
                                        X3
|-------------------|--------------------|---------------------------|
|-------------------|.------------------.|---------------------------|
|-------------------|--------------------|---------------------------|
|-------------------|--------------------|---------------------------|
|-------------------|.-------------7777-.|---------------------------|
|-6666666660008888--|--666666666000------|-6666666660008888----------|
           ...                  ...                 ...

|--------------------------------------------------------------------|
|--------------------------------------------------------------------|
|--------------------------------------------------------------------|
|-----77-----77-----77-----8888-----55-----55-----55-----6666--------|
|--------------------------------------------------------------------|
|-6666---6666---6666---6666-----4444---4444---4444---4444------------|
  ....   ....   ....   ....     ....   ....   ....   ....
                     X2                   X2
|---------------------|--------------------|-------------------------
|.-------------------.|.------------------.|.------------------------
|---------------------|--------------------|-------------------------
|------7(7)----10(10)-|------5(5)----------|--(3)----9-(3)-----------
|.-------------------.|.-------------6(6)-.|.-(1)----7-(1)-----3-----
|--6666----6666-------|--4444----4444------|-----0000-----0000-1-----
   ....    ....          ....    ....            ....     ....
                    X2
---------------------|-------------------------------------------------
--------------------.|.------------------------------------------------
---------------------|-------------------------------------------------
--(3)----9-(3)----5--|-------------------------------------------------
--(1)----7-(1)----3-.|.-888-8-10-888-8-11-444-4-7--444-4-7--888-8-10---
-----0000-----0000---|--666-6-8--666-6-9--222-2-5--222-2-5--666-6-8----
     ....     ....
                            X2
-----------------------------|-----------------------------------------
----------------------------.|.----------------------------------------
-----------------------------|-----------------------------------------
----------------9/-------9/--|-----------------------------------------
-888-8-11-444-4-7/-444-4-7/-.|.----------------------------------------
-666-6-9--222-2----222-2-----|--00007777333333330000888844444444-------

                              X2
-------------------------------|---------------------------------------
------------------------------.|.--------------------------------------
-------------------------------|---------------------------------------
-------------------------------|---------------------------------------
---------------------88884444-.|.-888-8-10-888-8-11-444-4-7--444-4-7---
-00007777333333330000----------|--666-6-8--666-6-9--222-2-5--222-2-5---

                                     X2
--------------------------------------|-----------------------------------
-------------------------------------.|.----------------------------------
--------------------------------------|-----------------------------------
-------------------------9/-------9/--|-----------------------------------
-888-8-10-888-8-11-444-4-7/-444-4-7/-.|.----------------------------------
-666-6-8--666-6-9--222-2----222-2-----|--00007777333333330000888844444444-

                              X2
-------------------------------|------------------------------------------
------------------------------.|.-----------------------------------------
-------------------------------|------------------------------------------
-------------------------------|--9/10/9----------------9/10/9------------
---------------------88884444-.|.-7/-8/7-2-2-2-2-2-2--2-7/-8/7-7/8/7-5-4-8
-00007777333333330000----------|---------0-0-0-0-0-0--0--------5/6/5-3-2-6
                                         . . . . . .  .
                                          X4
-------------------------------------------|------------------------------
------------------------------------------.|------------------------------
-------------------------------------------|------------------------------
-9/10/9----------------9/10/9--------------|------------------------------
-7/-8/7-2-2-2-2-2-2-2--7/-8/7-7/8/7-5-4-8-.|------------------------------
--------0-0-0-0-0-0-0---------5/6/5-3-2-6--|-0000777733333333333333333333-
        . . . . . . .

--------------------------------------------------------------------------
--------------------------------------------------------------------------
--------------------------------------------------------------------------
--------------------------------------------------------------------------
--------------------------------------------------------------------------
3333-00008888444444444444444444444444-00007777333333333333333333333333----


----------------------------------|---------------------------------------
----------------------------------|.--------------------------------------
----------------------------------|---------------------------------------
---------666666666666666666666666-|-9/10/9--------------9/10/9------------
-----8888-------------------------|.7/-8/72-2-2-2-2-2-2-7/-8/7-7/8/8-5-4-8
-0000-----------------------------|-------0-0-0-0-0-0-0--------5/6/5-3-2-6
                                          . . . . . . .
                                         X4
------------------------------------------|-------------------------------
-----------------------------------------.|.------------------------------
------------------------------------------|-------------------------------
-9/10/9---------------9/10/9--------------|-------------------------------
-7/-8/7-2-2-2-2-2-2-2-7/-8/7-7/8/7-5-4-8-.|.------------------------------
--------0-0-0-0-0-0-0--------5/6/5-3-2-6--|--0000777733333333333333333333-
        . . . . . . .

--------------------------------------------------------------------------
--------------------------------------------------------------------------
--------------------------------------------------------------------------
--------------------------------------------------------------------------
--------------------------------------------------------------------------
3333-00008888444444444444444444444444-00007777333333333333333333333333----

                                  X2
-----------------------------------|--------------------------------------
----------------------------------.|--------------------------------------
-----------------------------------|--------------------------------------
---------666666666666666666666666--|-9/10/(9)/----------------------------
-----8888-------------------------.|-7/-8/(7)/----------------------------
-0000------------------------------|--------------------------------------


CONTACT ME IF YOU HAVE ANY QUESTIONS OR COMMENTS-THANX

  Visit MetalTabs.com for more metal tablature

bottom separator

Contact Us | Privacy Policy | Disclaimer | Legal Notice
Copyright © 2001-2014 MetalTabs.com. All Rights Reserved.