top separator

Home

Forum

What's New

Submit a Tab

FAQ

Links

Contact Us

Link to Us

MetalTabs.com logo

Bands

0-9

A

B

C

D

E

F

G

H

I

J

K

L

M

N

O

P

Q

R

S

T

U

V

W

X

Y

Z

Search

What

Where
 

Destruction - "Mad Butcher" Guitar Tab

Plain Text Version
More Destruction Tabs

Hits: 3392
Rated: 5.00 out of 5 (2 votes)
Updated: 2006-10-26 04:20:57

 

By:

Dahmers Fridge

sendpm.gif

email.gif

Important note
This tab is available online because we obtained explicit permission from Destruction or their label.


#----------------------------------PLEASE NOTE---------------------------------#
#This file is the author's own work and represents their interpretation of the #
#song. You may only use this file for private study, scholarship, or research. #
#Unless specified otherwise, this is NOT an official tab from the band members.#
#------------------------------------------------------------------------------#

  Visit MetalTabs.com for more metal tablature
  
Band:  Destruction
Album: Bestial Invasion From Hell(demo)
Song:  Mad Butcher(demo)

Copyright (c)  (RECORD LABEL) (1984)
Version 1.0 - (09/09/06)

Transcribed By: Steve
Email:          stephen.elvidge1@ntlworld.com


.  - palm mute           /  - slide up to
\  - slide down to       ~  - vibrato
h  - hammer on           b  - Bend
p  - pull off            Suffixes for bend
t  - tap                 f  - full bend    h - half bend
ph - pinched harmonic    q  - quarter bend t - tap bend
*  - see comment         ^  - Hold bend    r release bend
x  - Stuccatto           ~  - vibrato bend
,  - slight palm mute    () - ghost note, sustained note
"  - tremolo note        <> - harmonic
pb - pre bend

Tuning E A D G B E


 Intro

  [--------PM--------]
|-----------------------1-0---------|
|---------------------------1-3p1---|
|---------------------------------2-|
|-----------------3p2p0-------------|
|-----------3p2p0-------------------|
|-0-0-3p2p0-------------------------| Rpt 4 X

 Main Riff

   [PM]   [PM]   [PM]
|-----------------------------|
|-----------------------------|
|-----------------------------|
|-2----5-5----5-5------7/8-8--|
|-0-00-----00-----00-0-5/6-6--|
|-----------------------------| Rpt 8 X




 Chorus

   [-PM-] [-PM-] [-PM-] [-PM-] [-PM-] [-PM-]
|---------------------------------------------------------------|
|---------------------------------------------------------------|
|---------------------------------------------------------------|
|----------------------5------4------10-----9/10/12-12-8/9/1010-|
|-2------5------4------3------2------8------7/8-/10-10-6/7/8-8--|
|-0-0000-3-0000-2-0000---0000---0000---0000---------------------| Rpt 4 X

                                 h   h   h   h   h   h   h   h
|--------------------------------3p0-3p0--------------------------|
|----------------------------------------3p0-3p0------------------|
|------------------------------------------------2p0-2p0----------|
|-7/8/9-9--5/7-7-4----------(4)--------------------------2p0-2p0--|
|-5/6/7-7--3/5-5-2----------(2)-----------------------------------|
|-----------------------------------------------------------------|

 Rpt intro riff 4 X
 Rpt Main Riff 8 X


   [-PM-] [-PM-] [-PM-] [-PM-] [-PM-] [-PM-]
|---------------------------------------------------------------|
|---------------------------------------------------------------|
|---------------------------------------------------------------|
|----------------------5------4------10-----9/10/12-12-8/9/1010-|
|-2------5------4------3------2------8------7/8-/10-10-6/7/8-8--|
|-0-0000-3-0000-2-0000---0000---0000---0000---------------------| Rpt 2 X

                                 h   h   h   h   h   h   h   h
|--------------------------------3p0-3p0--------------------------|
|----------------------------------------3p0-3p0------------------|
|------------------------------------------------2p0-2p0----------|
|-7/8/9-9--5/7-7-4----------(4)--------------------------2p0-2p0--|
|-5/6/7-7--3/5-5-2----------(2)-----------------------------------|
|-----------------------------------------------------------------|

Rpt intro riff 4 X

 [--PM--]  [PM-] [PM-] PM     [--PM--]        PM     PM   [PM]
|--------------------------------------------------------------------|
|--------------------------------------------------------------------|
|--------------------------------------------------------------------|
|---------9-----7-----9---1010------------------10\9---7/9-----12\10-|
|---------7-----5-----7---8-8----------10\9\7---8-\7---5/7-----10\8--|
|-0-0-0-0---0-0---0-0---0------0-0-0-0-8-\7\5-0------0-----0-0-------| Rpt 4 X

 Guitar solo

     h     h     h     h     h     h     h     h     h
|-----------------------------------------------------------|
|-10-13p10-13p10-13p10-13p10-13p10-13p10-13p10-13p10-13p10--|
|-----------------------------------------------------------|
|-----------------------------------------------------------|
|-----------------------------------------------------------|
|-----------------------------------------------------------|

   h     h     h     h     h
|----------------------------------------------------------|
|-13p10-13p10-13p10-13p10-13p10-13fb--10-------------------|
|----------------------------------------12---9----7-------|
|----------------------------------------------------10-b--|
|----------------------------------------------------------|
|----------------------------------------------------------|

                                  ~~~~~
|--------------------------------------------------------------|
|-------------8-10--8----8-10-------------0 trem dive--/10-8---|
|-5-7---5-7/9---------9-------7-9------------------------------|
|-5-7-----------------------------7-----7----------------------|
|--------------------------------------------------------------|
|--------------------------------------------------------------|

                                                        ~~~~~~
|--------------------------------------------------------------|
|-10p8-10-10b--rp8-10p8---10p8---------------------------------|
|-----------------------9------9--4b--2p0-----------5-7-9------|
|-----------------------------------------2-----/7-------------|
|--------------------------------------------------------------|
|--------------------------------------------------------------|

    h    h      h    h    h    h
|---------------------------------------------------------|
|-8-10p8-10p8-5-8p-5-8p-5-8p-5-8p-5-8b-r5-----------------|
|-----------------------------------------7-7--7-5-7p5----|
|------------------------------------------------------7--|
|---------------------------------------------------------|
|---------------------------------------------------------|

     h    h      h    h           ~~~~~~~~~~~~~        ~~~
|---------------------------------------------------------|
|-8-10p8-10p8-10p8-10p8-10b10b-8fb-----8b-10-r8---10p8----|
|------------------------------------------------------9--|
|---------------------------------------------------------|
|---------------------------------------------------------|
|---------------------------------------------------------|

     h    h        h    h        h    h
|---------------------------------------------------|
|-8-10p8-10p8---8-10p8-10p8---8-10p8-10p8-----10fb--|
|-------------9-------------9-------------9p7-------|
|---------------------------------------------------|
|---------------------------------------------------|
|---------------------------------------------------|


|-12-12-12------------------------------------------------------------|
|----------13p10-13p1010-13p1010-12p1010-10p8-8-----------------------|
|-----------------------------------------------12p9-9-12p9-7brp5-7-5-|
|---------------------------------------------------------------------|
|---------------------------------------------------------------------|
|---------------------------------------------------------------------|

                                                   ~~~~~~~
|--------------------------------------8----8----10fb------10 10b---|
|----------------------------8-10p8-10---10---10--------------------|
|-5-------5-5-5-5-7-7-7-7-/9----------------------------------------|
|---7-7-7-----------------------------------------------------------|
|-------------------------------------------------------------------|
|-------------------------------------------------------------------|

 Rpt Chorus
 Rpt intro Riff 3 X


  [--------PM--------]
|-----------------------1-0------------|
|--------------------------------------|
|--------------------------------------|
|-----------------3p2p0-----0-5-7-9-9--|
|-----------3p2p0-----------------7-7--|
|-0-0-3p2p0----------------------------|


END

  Visit MetalTabs.com for more metal tablature

bottom separator

Contact Us | Privacy Policy | Disclaimer | Legal Notice
Copyright © 2001-2014 MetalTabs.com. All Rights Reserved.