top separator

Home

Forum

What's New

Submit a Tab

FAQ

Links

Contact Us

Link to Us

MetalTabs.com logo

Bands

0-9

A

B

C

D

E

F

G

H

I

J

K

L

M

N

O

P

Q

R

S

T

U

V

W

X

Y

Z

Search

What

Where
 

Graveworm - "Unhallowed by the Infernal One" Guitar Tab

Plain Text Version
More Graveworm Tabs

Hits: 3258
Rated: 4.83 out of 5 (6 votes)
Updated: 2006-11-03 02:45:00

 

By:

USS

sendpm.gif

email.gif

Important note
This tab is available online because we obtained explicit permission from Graveworm or their label.


#----------------------------------PLEASE NOTE---------------------------------#
#This file is the author's own work and represents their interpretation of the #
#song. You may only use this file for private study, scholarship, or research. #
#Unless specified otherwise, this is NOT an official tab from the band members.#
#------------------------------------------------------------------------------#

  Visit MetalTabs.com for more metal tablature
  
Band:  Graveworm
Album: Scourge of Malice
Song:  Unhallowed By The Infernal One

Copyright (c)  Neon Knights records 2001
Version 1.0 -  2002

Transcribed By: Chayns of Demolishment
Email:          infernal_purge@hotmail.com

Note: tune down one whole step
D|
A|
F|
C|
G|
D|

Note:
There is a string ensemble playing

Note:
=  let ring

Song:

Keyboard riff
|---7---7-|-877-757-|---7---7-|-877-755-|-2=-3-2=-0-|----0-2=-3-|
|---------|---------|---------|---------|-----------|-4=--------|
|---------|---------|---------|---------|-----------|-----------|
|---------|---------|---------|---------|-----------|-----------|
|---------|---------|---------|---------|-----------|-----------|
|-00--00--|---------|-00--00--|---------|-----------|-----------|

Riff 1 under keyboard riff
|---------|---------|---------|---------|-----------|-----------|
|---------|---------|---------|---------|-----------|-----------|
|---------|---------|---------|---------|-----------|-----------|
|-22--22--|-22--22--|-22--22--|-22--22--|-4-4--4-4--|-2-2--2-2--|
|-22--22--|-22--22--|-22--22--|-22--22--|-4-4--4-4--|-0-0--0-0--|
|-00--00--|-00--00--|-00--00--|-00--00--|-2-2--2-2--|-0-0--0-0--|

Fill 1:
|-0-------|-0-------|-0-------|-0-0-232-|-0-------|-0-------|
|--0------|--0------|--0------|--0------|--0------|--0------|
|---2=----|---2=----|---2=----|---------|---2=----|---2=----|
|-----5-4-|-----5-4-|-----5-4-|---------|-----5-4-|-----5-4-|
|---------|---------|---------|---------|---------|---------|
|---------|---------|---------|---------|---------|---------|

Scream of half one measure
Riff 2
a
|---------------|---------------|-555577-888877-|---------------|
|-005577-887755-|-005577-887755-|---------------|-888888-888877-|
|---------------|---------------|---------------|---------------|
|---------------|---------------|---------------|---------------|
|---------------|---------------|---------------|---------------|
|---------------|---------------|---------------|---------------|

b
|---------------|---------------|---------------|---------------|
|-005577-887755-|-005577-887755-|---------------|---------------|
|---------------|---------------|-555555-555544-|---------------|
|---------------|---------------|---------------|-555555-555544-|
|---------------|---------------|---------------|---------------|
|---------------|---------------|---------------|---------------|

Riff 3 (twice)
a
33-|-222222-222200-|-333333-----33-|-222222-222233-|-000000-0000---|
---|---------------|--------0000---|---------------|------------33-|
---|---------------|---------------|---------------|---------------|
---|---------------|---------------|---------------|---------------|
---|---------------|---------------|---------------|---------------|
---|---------------|---------------|---------------|---------------|

b
|---------------|---------------|---------------|---------------|
|-111111-111100-|--------000011-|-333333-333355-|-777777-777777-|
|---------------|-222222--------|-444444-444455-|-777777-777777-|
|---------------|---------------|-----played by two guitars-----|
|---------------|---------------|---------------|---------------|
|---------------|---------------|---------------|---------------|

Riff 1 agayn

Riff 4
|--------------|--------------|--------------|--------------|
|--------------|--------------|--------------|--------------|
|-55.555-5=----|-44.444-4=----|--------------|--------------|
|-55.555-5=----|-44.444-4=----|-77.777-7=----|-22.222-2=----|
|-33.333-3=----|-22.222-2=----|-77.777-7=----|-22.222-2=----|
|--------------|--------------|-55.555-5=----|-00.000-0=----|

Riff 2 agayn

Violin riff (four times)
Note: since the strings play arci,
the notes are playes until the next one.
Note: the notes in the last line are played by more than one string.
|-8----------7--|-5------5-7-8-|-7------------|--------------|
|---------------|--------------|--------8--7--|-5------------|
|---------------|--------------|--------------|--------------|
|---------------|--------------|--------------|--------------|
|---------------|--------------|--------------|--------------|
|---------------|--------------|--------------|--------------|

             v first time not played
|-8----------7--|-5------5-7-8-|-7------------|--------------|
|---------------|--------------|--------8--7--|-5------5-7-8-|
|---------------|--------------|--------------|--------------|
|---------------|--------------|--------------|--------------|
|---------------|--------------|--------------|--------------|
|---------------|--------------|--------------|--------------|

|--------5------|--------------|--------------|--------------|
|-8---------8---|-7------------|-7------------|-3------------|
|---------------|--------------|--------7--6--|-4------------|
|---------------|--------------|--------------|--------------|
|---------------|--------------|--------------|--------------|
|---------------|--------------|--------------|--------------|

|--------0------|-2------2-----|-0------------|-0------------|
|-1------=------|-3------=-----|-0------------|-0------------|
|-2------=------|-4------=-----|-0------------|-0------------|
|---------------|--------------|--------------|--------------|
|---------------|--------------|--------------|--------------|
|---------------|--------------|--------------|--------------|

Lead Guitar under second and third time, measures 1,2,5 and 6 :
|---------------|--------------|
|---------------|--------------|
|---------------|--------------|
|---5----2=-----|---5---2=-----|
|-2---2---------|-2---2--------|
|---------------|--------------|

  Visit MetalTabs.com for more metal tablature

bottom separator

Contact Us | Privacy Policy | Disclaimer | Legal Notice
Copyright © 2001-2014 MetalTabs.com. All Rights Reserved.