top separator

Home

Forum

What's New

Submit a Tab

FAQ

Links

Contact Us

Link to Us

MetalTabs.com logo

Bands

0-9

A

B

C

D

E

F

G

H

I

J

K

L

M

N

O

P

Q

R

S

T

U

V

W

X

Y

Z

Search

What

Where
 

Pestilence - "Personal Energy" Bass Tab

Plain Text Version
More Pestilence Tabs

Hits: 2629
Updated: 2006-10-26 03:39:44

 

By:

epitaph

sendpm.gif

email.gif

Important note
This tab is available online because we obtained explicit permission from Pestilence or their label.


#----------------------------------PLEASE NOTE---------------------------------#
#This file is the author's own work and represents their interpretation of the #
#song. You may only use this file for private study, scholarship, or research. #
#Unless specified otherwise, this is NOT an official tab from the band members.#
#------------------------------------------------------------------------------#

  Visit MetalTabs.com for more metal tablature
  
Band: Pestilence
Album: Spheres
Song: Personal Energy

Transcribed by: Lassi Nurminen
E-Mail: Gaborik10@hotmail.com / Gaborik@welho.com

Tuning: (B)EADG - Theres only one part where you might need the B string,
So I've tabbed everything in EADG except the part mentioned above.

0:19
|-5-7-----|
|-----4---| Natural
|-------5-| Harmonics
|---------|

0:25
|-----------|
|-----------|
|-4/5/7-5-4-|
|-----------|

|---------------------------------------|
|------5---5-7\5-0-------5-7--7/10\9----|
|-0--7-------------0---7-------------10-|
|---------------------------------------|

|--------------------------------------9-|
|------5---5-7\5-0-------5-7--7/10\9/10--|
|-0--7-------------0---7-----------------|
|----------------------------------------|

|----------------------------------------|
|------5---5-7-5-0-------5-7---7/10\9----|
|-0--7-------------0---7--------------10-|
|----------------------------------------|

|---------------------------------|
|------5---5-5-0-------5-7---5\-0-|
|-0--7-----------0---7------------|
|---------------------------------|

0:56 Repeat this once
|---------------|
|---------------|
|-2-0-2---2-0-2-|
|---------------|

|---------------|
|---------------|
|-------------4-|
|-6-4-6---4-6---|

|---------------|
|---------------|
|-2-0-2---2-0-2-|
|---------------|

|-----------------------------|
|-----------------------------|
|-5-xx-3-5-xx-3-5-xx-3-5-xx-5-|
|-----------------------------|

1:24
|---------------------------------------|
|------5---5-7\5-0-------5-7--7/10\9----|
|-0--7-------------0---7-------------10-|
|---------------------------------------|

|------------------------------------12---|
|------5---5-7\5-0-------5-7--10\9/10---9-|
|-0--7-------------0---7------------------|
|-----------------------------------------|

|-----------------------------------|
|------5---5-5-0-------5-7--7-7-5-0-| Twice
|-0--7-----------0---7--------------|
|-----------------------------------|

1:53 Repeat this once
|---------------|
|---------------|
|-2-0-2---2-0-2-|
|---------------|

|---------------|
|---------------|
|-------------4-|
|-6-4-6---4-6---|

|---------------|
|---------------|
|-2-0-2---2-0-2-|
|---------------|

|-----------------------------|
|-----------------------------|
|-5-xx-3-5-xx-3-5-xx-3-5-xx-5-|
|-----------------------------|

2:21 Repeat this once
|----------------------------|
|-------5-4--5--------5-4/-7-|
|----2-------------2---------|
|-0-------------0------------|

|--------------------------|
|------------------------2-|
|-3------3-----3------3----|
|---2-3-----2----2-3-------|

2:47 Repeat this once
|---------------------------------------------------------| Jeroen might've
|---------------------------2-----------------------------| played 4's instead
|-4-xxx-2-4-xxx-2-4-xxx-2-4---4-xxx-2-4-xxx-2-4-xxx-2-4-3-| of the x's. This is
|---------------------------------------------------------| just how I play it.

|---------------------------------------------------------|
|---------------------------------------------------------| Same goes here
|-2-xxx-0-2-xxx-0-2-xxx-0-2-3-2-xxx-0-2-xxx-0-2-xxx-0-2-3-|
|---------------------------------------------------------|

3:12
|------------------------|
|------------------------| Heres the only
|------------------------| part where you
|-2----2---2--0----0---0-| could use the B string
|----2---x-------0---x---|

3:18
|-----------------------------------12---|
|------5--10-9---------5-7--10\9/10----9-|
|-0--7---------10-0--7-------------------|
|----------------------------------------|

|------------------9\7-6-7-9--6-4-|
|------5--5-5-0-------------------|
|-0--7----------0-----------------|
|---------------------------------|

1:53 Repeat this once
|---------------|
|---------------|
|-2-0-2---2-0-2-|
|---------------|

|---------------|
|---------------|
|-------------4-|
|-6-4-6---4-6---|

|---------------|
|---------------|
|-2-0-2---2-0-2-|
|---------------|

|-----------------------------|
|-----------------------------|
|-5-xx-3-5-xx-3-5-xx-3-5-xx-5-|
|-----------------------------|

4:00
|------|
|------|
|------|
|-11-1-|

  Visit MetalTabs.com for more metal tablature

bottom separator

Contact Us | Privacy Policy | Disclaimer | Legal Notice
Copyright © 2001-2014 MetalTabs.com. All Rights Reserved.