top separator

Home

Forum

What's New

Submit a Tab

FAQ

Links

Contact Us

Link to Us

MuSpy.com

MetalTabs.com logo

Bands

0-9

A

B

C

D

E

F

G

H

I

J

K

L

M

N

O

P

Q

R

S

T

U

V

W

X

Y

Z

Search

What

Where
 

StrommoussHeld - "Faust's Dream (In the Theatre of Dejavous)" Guitar Tab

Plain Text Version
More StrommoussHeld Tabs

Hits: 1403
Updated: 2006-10-26 03:37:29

 

By:

sendpm.gif

email.gif

Important note
This tab is available online because we obtained explicit permission from StrommoussHeld or their label.


#----------------------------------PLEASE NOTE---------------------------------#
#This file is the author's own work and represents their interpretation of the #
#song. You may only use this file for private study, scholarship, or research. #
#Unless specified otherwise, this is NOT an official tab from the band members.#
#------------------------------------------------------------------------------#

  Visit MetalTabs.com for more metal tablature
  
Band:  StrommoussHeld
Album: Behind the Curtain
Song:  Faust's Dream (in the Theatre of Dejavous)

Copyright (c)  Avantgarde Music 2003
Version 1.0 - 07.09.06

Transcribed By: eRyahXa0S/Darth Wojtex
Email:          darthwojtex@interia.pl


_pm   - palm mute
\ /   - slides
h     - hammer on
p     - pull off
t     - tap
ah/nh - harmonics
~     - vibrato
p
s     - pick slide
b     - bend
*     - see comment


Tuning C#F#BEG#C#


riff1 (fade in)

|---------|
|---------|
|---------|
|-8-8-8-8-|
|-8-8-8-8-|
|-6-6-6-6-|

riff 2 4x

|-------------------------|
|-------------------------|
|-------------------------|
|-8---------9-------------|
|-8---------9-------------|
|-6-(6)-(6)-7-(7)-(7)-(7)-|


riff 3 4x

|---------------------------------------------|
|---------------------------------------------|
|---------------------------------------------|
|-7---------(7)---------8---------(8)---------|
|-7---------(7)---------8---------(8)---------|
|-5-(5)-(5)-(5)-(5)-(5)-6-(6)-(6)-(6)-(6)-(6)-|

riff 2 4x

riff 3 4x

riff 2 4x

riff 3 4x

riff 2 4x

riff 3 4x

pick slides (or something like that ;))

riff 4 x4

|--------------------|
|--------------------|
|--------------------|
|--------------------|
|-7------------------|
|-555555555555666666-|

riff 5 x4

|--------------------|
|--------------------|
|--------------------|
|--------------------|
|-10-----------------|
|-888888888888999999-|

riff 4 x4

riff 5 x4

pick slides

riff 4 x4

riff 5 x4

pick slides

  Visit MetalTabs.com for more metal tablature

bottom separator

Contact Us | Privacy Policy | Disclaimer | Legal Notice
Copyright © 2001-2014 MetalTabs.com. All Rights Reserved.