top separator

Home

Forum

FAQ

Contact Us

Link to Us

MetalTabs.com logo

Bands

0-9

A

B

C

D

E

F

G

H

I

J

K

L

M

N

O

P

Q

R

S

T

U

V

W

X

Y

Z

Venom - "Lucifer Rising" Guitar Tab

Plain Text Version
More Venom Tabs

Hits: 1607
Rated: 3.00 out of 5 (1 vote)
Updated: 2006-10-26 03:22:59

By:

fatslob


#----------------------------------PLEASE NOTE---------------------------------#
#This file is the author's own work and represents their interpretation of the #
#song. You may only use this file for private study, scholarship, or research. #
#Unless specified otherwise, this is NOT an official tab from the band members.#
#------------------------------------------------------------------------------#

  Visit MetalTabs.com for more metal tablature
  
Band:  Venom
Album: Metal Black
Song:  Lucifer Rising

Copyright (c)  Sanctuary Records 2006
Version 1.0  September 4, 2006

Transcribed By: fatslob
Email:          satanspathfattiesofcbad@yahoo.com


..  - palm mute          /  - slide up to
 \  - slide down to      ~  - vibrato
 h  - hammer on          b  - bend
 p  - pull off            Suffixes for bend
                          ph - pinch harmonic
                           f - full bend    h - half bend
*  - Dead note           r - release      t - tap bend
X  - percussion mute       ~ - vibrato bend
@  - slight palm mute     () - ghost note, sustained note

This tab needs some work but is pretty close to the acutal song if u have
anything you might want to add, change, please email me.

Tune Gtr to D [D,G,C,F,A,D]


Riff A 4 times
[---------------------------------------------]
[---------------------------------------------]
[---------------------------------------------]
[-\*2------5------7------3-2--7-55\4----7-5--]
[-\*2------5------7------1-0--7-55\4----7-5--]
[-\*0--00--3--00--5--00-------5-33\2-00-5-3--]

Riff B Play 4 times
[---------------------------------------------]
[---------------------------------------------]
[---------------------------------------------]
[2------5------7--3-4-3-----------------------]
[2------5------7--3-4-3-----------------------]
[0--00--3--00--5--1-2-1-----------------------]

Riff C
[---------------------------------------------]
[---------------------------------------------]
[---------------------------------------------]
[-2222--3333--4444--5555----------------------]
[-2222--3333--4444--5555----------------------]
[-0000--1111--2222--3333----------------------]

Play after riff C 11 times
each time
[---------------------------------------------]
[---------------------------------------------]
[---------------------------------------------]
[-2222--3333--4444--3333----------------------]
[-2222--3333--4444--3333----------------------]
[-0000--1111--2222--1111----------------------]

Riff A 4 times
Riff B 4 times
Riff C 11 times

Solo- I have not yet figured out the solo
|---------------------------------------------------|
|---------------------------------------------------|
|---------------------------------------------------|
|---------------------------------------------------|
|---------------------------------------------------|
|---------------------------------------------------|

|---------------------------------------------------|
|---------------------------------------------------|
|---------------------------------------------------|
|---------------------------------------------------|
|---------------------------------------------------|
|---------------------------------------------------|

|---------------------------------------------------|
|---------------------------------------------------|
|---------------------------------------------------|
|---------------------------------------------------|
|---------------------------------------------------|
|---------------------------------------------------|

|---------------------------------------------------|
|---------------------------------------------------|
|---------------------------------------------------|
|---------------------------------------------------|
|---------------------------------------------------|
|---------------------------------------------------|

|---------------------------------------------------|
|---------------------------------------------------|
|---------------------------------------------------|
|---------------------------------------------------|
|---------------------------------------------------|
|---------------------------------------------------|
Riff A 4 times
Riff B 4 times
Riff C 11 times

Riff A 4 times
Riff B 4 times
Riff C 11 times

End in Riff A

  Visit MetalTabs.com for more metal tablature

bottom separator

Contact Us | Privacy Policy | Disclaimer
Copyright © 2001-2014 MetalTabs.com. All Rights Reserved.