top separator

Home

Forum

FAQ

Contact Us

Link to Us

MetalTabs.com logo

Bands

0-9

A

B

C

D

E

F

G

H

I

J

K

L

M

N

O

P

Q

R

S

T

U

V

W

X

Y

Z

Misery Index - "Meet Reality" Guitar Tab

Plain Text Version
More Misery Index Tabs

Hits: 794
Updated: 2006-10-26 03:21:06

By:

UnstatisfiedDesire


#----------------------------------PLEASE NOTE---------------------------------#
#This file is the author's own work and represents their interpretation of the #
#song. You may only use this file for private study, scholarship, or research. #
#Unless specified otherwise, this is NOT an official tab from the band members.#
#------------------------------------------------------------------------------#

  Visit MetalTabs.com for more metal tablature
  
band: Misery Index
song: Meet Reality
album: Discordia

Copyright   (Relapse Records) (2006)

Tabbed by: Nick ( nick23_363@hotmail.com )

Tuning is in C#: C# F# B E G# C#

,  - slight palm mute
.  - palm mute
 \ - slide down to
 / - slide up to
h  - hammer on
p  - pull off
t  - tap
ph - pinched harmonic
*  - see comment
() - ghost note,
"  - tremolo note
<> - Trill
b  - Bend
~  - vibrato
=  - sustained note
ps - pick scrape
"  - tremolo picking



|------|--------------------------------------|
|------|--------------------------------------|
|------|--------------------------------------|
|------|---------------3-3-3------------------|
|-ps==-|-2---3-3-3-2---1-1-1-2---3-2-3-5--7---|
|-ps==-|-0---1-1-1-0---------0---1-0-1-3--5---|



|---------------------------------------|
|---------------------------------------|
|---------------------------------------|
|---------------3-3-3-------------------|
|-2---3-3-3-2---1-1-1-2---3-2-3-5--8--7-|
|-0---1-1-1-0---------0---1-0-1-3--6--5-|




|-----------------------------------------|
|-----------------------------------------|
|-----------------------------------------|
|-----------------------------------------|
|-55-55-7--33-33-6--55-55-7--33-33--9-109-|
|-33-33-5--11-11-4--33-33-5--11-11--7-8-7-|






|-----------------------------------------|
|-----------------------------------------|
|-----------------------------------------|
|-----------------------------------------|
|-55-55-7--33-33-6--55-55-7--33-33--9-109-|
|-33-33-5--11-11-4--33-33-5--11-11--7-8-7-|




|----------------------------|
|----------------------------|
|----------------------------|
|----9--10--9--7----5----7-9-|
|-2--7--8---7--5----3----5-7-|
|-0--------------------------|





|----------------------------|
|----------------------------|
|----------------------------|
|----9--10--9--5----4--------|
|-2--7--8---7--3----2----5-4-|
|-0----------------------3-2-|




gtr.1
|-------------------------------------------------------|
|-------------------------------------------------------|
|-/4--2--------2----------------------------------------|
|--------5---4---5-4-5-2/--14--16--17---16--19-17-16-17-|
|-------------------------------------------------------|
|-------------------------------------------------------|
|
|
|
|
|
|gtr. 2
|---------------------------|---------------------------|
|---------------------------|---------------------------|
|---------------------------|---------------------------|
|----9--10-9--7----5----7-9-|----9--10-9--5----4--------|
|-2--7--8--7--5----3----5-7-|-2--7--8--7--3----2----5-4-|
|-0-------------------------|-0---------------------3-2-|





|-----------------------------------------|
|-----------------------------------------|
|-----------------------------------------|
|---------------3-3-3---------------------|
|-2---3-3-3-2---1-1-1-2---3-2-3-3-5---3---|
|-0---1-1-1-0---------0---1-0-1-1-3---1---|





|---------------------------------------------|
|---------------------------------------------|
|---------------------------------------------|
|---------------3-3-3-------------------------|
|-2---3-3-3-2---1-1-1-2---3-2-3-3-8-7-5-7-5-4-|
|-0---1-1-1-0---------0---1-0-1-1-6-5-3-5-3-2-|





|-----------------------------------------|
|-----------------------------------------|
|-----------------------------------------|
|---------------3-3-3---------------------|
|-2---3-3-3-2---1-1-1-2---3-2-3-3-5---3---|
|-0---1-1-1-0---------0---1-0-1-1-3---1---|





|---------------------------------------------|
|---------------------------------------------|
|---------------------------------------------|
|---------------3-3-3-------------------------|
|-2---3-3-3-2---1-1-1-2---3-2-3-3-8-7-5-7-5-4-|
|-0---1-1-1-0---------0---1-0-1-1-6-5-3-5-3-2-|




reAlly not sure about this part...
the guitars are muffled by the drums or something.
so you dont hear much but this is what i think it is
|-----------------------------------------------|
|-----------------------------------------------|
|-----------------------------------------------|
|-----------------------------------------------|
|-222-222-222-222-222-222-222-222-4---4---5---4-|
|-000-000-000-000-000-000-000-000-2---2---3---2-|





|-----------------------------------------------|
|-----------------------------------------------|
|-----------------------------------------------|
|-----------------------------------------------|
|-222-222-222-222-222-222-222-222---------------|
|-000-000-000-000-000-000-000-000-3"-2"-5"3"0==-|





|-----------------------------------------------|
|-----------------------------------------------|
|-----------------------------------------------|
|-----------------------------------------------|
|-222-222-222-222-222-222-222-222-4---4---5---4-|
|-000-000-000-000-000-000-000-000-2---2---3---2-|





|-----------------------------------------------|
|-----------------------------------------------|
|-----------------------------------------------|
|-----------------------------------------------|
|-222-222-222-222-222-222-222-222---------------|
|-000-000-000-000-000-000-000-000-3"-2"-5"3"0==-|






|---------------------------------------------|
|---------------------------------------------|
|---------------------------------------------|
|---------------3-3-3-------------------------|
|-2---3-3-3-2---1-1-1-2---3-2-3-3-8-7-5-7-5-4-|
|-0---1-1-1-0---------0---1-0-1-1-6-5-3-5-3-2-|
                                  . . . . . .





|---------------------------------------------|
|---------------------------------------------|
|---------------------------------------------|
|---------------3-3-3-------------------------|
|-2---3-3-3-2---1-1-1-2---3-2-3-3-8-7-5-7-5-4-|
|-0---1-1-1-0---------0---1-0-1-1-6-5-3-5-3-2-|




|-----------------------------------------|
|-----------------------------------------|
|-----------------------------------------|
|---------------3-3-3---------------------|
|-2---3-3-3-2---1-1-1-2---3-2-3-3-5---3---|
|-0---1-1-1-0---------0---1-0-1-1-3---1---|




|---------------------------------------------|
|---------------------------------------------|
|---------------------------------------------|
|---------------3-3-3-------------------------|
|-2---3-3-3-2---1-1-1-2---3-2-3-3-8-7-5-7-5-4-|
|-0---1-1-1-0---------0---1-0-1-1-6-5-3-5-3-2-|




|-----------------------------------------------|
|-----------------------------------------------|
|-----------------------------------------------|
|-----------------------------------------------|
|-222-222-222-222-222-222-222-222-4---4---5---4-|
|-000-000-000-000-000-000-000-000-2---2---3---2-|





|-----------------------------------------------|
|-----------------------------------------------|
|-----------------------------------------------|
|-----------------------------------------------|
|-222-222-222-222-222-222-222-222---------------|
|-000-000-000-000-000-000-000-000-3"-2"-5"3"0==-|




|-----------------------------------------------|
|-----------------------------------------------|
|-----------------------------------------------|
|-----------------------------------------------|
|-222-222-222-222-222-222-222-222-4---4---5---4-|
|-000-000-000-000-000-000-000-000-2---2---3---2-|




|-----------------------------------------------|-------|
|-----------------------------------------------|-------|
|-----------------------------------------------|-------|
|-----------------------------------------------|-------|
|-222-222-222-222-222-222-222-222-----------2==-|-2==-2-|
|-000-000-000-000-000-000-000-000-3"-2"-5"3"0==-|-0==-0-|





|-------------------------------------------|
|-------------------------------------------|
|-------------------------------------------|
|-777-9==-9==-9-777-9==-9==-9-777--4==-4==-4|
|-555-7==-7==-7-555-7==-7==-7-555--2==-2==-2|
|-------------------------------------------|





|--------------------------------------------------|
|--------------------------------------------------|
|--------------------------------------------------|
|777-9---9---9--9-9--9--777-9---9---9--9--9--9-9-9-|
|555-7---7---7--7-7--7--555-7---7---7--7--7--7-7-7-|
|--------------------------------------------------|






|----------------------------------------------|
|----------------------------------------------|
|----------------------------------------------|
|----------------------------------------------|
|-8-7-5-2--------------8-7-5-2------3/555-7777-|
|-6-5-3-0-000000000000-6-5-3-0-0000-1/333-5555-|
          ............         ....




|-------------------------------------------|
|-------------------------------------------|
|-------------------------------------------|
|-------------------------------------------|
|-8-7-5-2--------------8-7-5-2------8-8-7-7-|
|-6-5-3-0-000000000000-6-5-3-0-0000-6-6-5-5-|
          ............         ....




|-----------------------------------------------|
|-----------------------------------------------|
|-----------------------------------------------|
|-----------------------------------------------|
|-8-7-5-2--------------8-7-5-2------3/5555-7777-|
|-6-5-3-0-000000000000-6-5-3-0-0000-1/3333-5555-|
          ............         ....




|-------------------------------------------|
|-------------------------------------------|
|-------------------------------------------|
|-------------------------------------------|
|-8-7-5-2--------------8-7-5-2------8-8-7-7-|
|-6-5-3-0-000000000000-6-5-3-0-0000-6-6-5-5-|
          ............         ....




|---------|
|---------|
|---------|
|---------|
|-8-7-5-2-|
|-6-5-3-0-|



if there is any errors or that something should be corrected, e-mail me.

  Visit MetalTabs.com for more metal tablature

bottom separator

Contact Us | Privacy Policy | Disclaimer
Copyright © 2001-2014 MetalTabs.com. All Rights Reserved.