top separator

Home

Forum

What's New

Submit a Tab

FAQ

Links

Contact Us

Link to Us

MetalTabs.com logo

Bands

0-9

A

B

C

D

E

F

G

H

I

J

K

L

M

N

O

P

Q

R

S

T

U

V

W

X

Y

Z

Search

What

Where
 

Celtic Frost - "Innocence And Wrath" Guitar Tab

Plain Text Version
More Celtic Frost Tabs

Hits: 2009
Rated: 1.00 out of 5 (1 vote)
Updated: 2006-10-26 03:18:41

 

By:

sendpm.gif

email.gif

Important note
This tab is available online because we obtained explicit permission from Celtic Frost or their label.


#----------------------------------PLEASE NOTE---------------------------------#
#This file is the author's own work and represents their interpretation of the #
#song. You may only use this file for private study, scholarship, or research. #
#Unless specified otherwise, this is NOT an official tab from the band members.#
#------------------------------------------------------------------------------#

  Visit MetalTabs.com for more metal tablature
  
Band:  CELTIC FROST
Album: To Mega Therion
Song:  "Innocence and Wrath"


Copyright (c)  Noise records 1985
Version 1.0 - 03.09.2006

Transcribed By: ChrisDavisJr.
Email:          Chris_Ekers@hotmail.com


Tuning - E A D G B e



RIFF #1 - (Duration: 10 bars)

      <TEMPO>
  1 - 2 - 3 - 4 -  1 - 2 - 3 - 4 -  1 - 2 - 3 - 4 -  1 - 2 - 3 - 4 -
e|----------------|----------------|----------------|----------------|
b|----------------|----------------|----------------|----------------|
g|----------------|----------------|----------------|----------------|
d|2-------3-------|5-------4-------|7-------6-------|9-------7---8---|
a|2-------3-------|5-------4-------|7-------6-------|9-------7---8---|
E|0-------1-------|3-------2-------|5-------4-------|7-------5---6---|



 |----------------|
 |----------------|
 |----------------|
 |----------------|
 |11------8---10--|
 |11------8---10--|
 |9-------6---8---| Repeat x 1



RIFF #2

 |----------------|----------------|----------------|----------------|
 |----------------|----------------|----------------|----------------|
 |4---------------|5---------------|----------------|----------------|
 |4---------------|5---------------|6---7---8---4---|5---2---3-------|
 |2---------------|3---------------|6---7---8---4---|5---2---3-------|
 |----------------|----------------|4---5---6---2---|3---0---1-------|



 |----------------|
 |----------------|
 |----------------|
 |2---------------|
 |2---------------|
 |0---------------| Repeat x 1

(Repeat RIFF #1 and let the final chord ring.)

<END>

  Visit MetalTabs.com for more metal tablature

bottom separator

Contact Us | Privacy Policy | Disclaimer | Legal Notice
Copyright © 2001-2014 MetalTabs.com. All Rights Reserved.