top separator

Home

Forum

What's New

Submit a Tab

FAQ

Links

Contact Us

Link to Us

MuSpy.com

MetalTabs.com logo

Bands

0-9

A

B

C

D

E

F

G

H

I

J

K

L

M

N

O

P

Q

R

S

T

U

V

W

X

Y

Z

Search

What

Where
 

Napalm Death - "Remain Nameless" Guitar Tab

Plain Text Version
More Napalm Death Tabs

Hits: 2580
Updated: 2006-10-26 03:17:50

 

By:

goatman

sendpm.gif

email.gif

Important note
This tab is available online because we obtained explicit permission from Napalm Death or their label.


#----------------------------------PLEASE NOTE---------------------------------#
#This file is the author's own work and represents their interpretation of the #
#song. You may only use this file for private study, scholarship, or research. #
#Unless specified otherwise, this is NOT an official tab from the band members.#
#------------------------------------------------------------------------------#

  Visit MetalTabs.com for more metal tablature
  
Band:  (NAPALM DEATH)
Album: (FEAR,EMPTINESS,DESPAIR)
Song:  (REMAIN NAMELESS)

Copyright (c)  (EARACHE/COLUMBIA RECORDS) (1994)
Version 1.0 - (MAY 31,1994)

Transcribed By: (Holden)
Email:          (VIRUS010891@aol.com)



.  - palm mute           /  - slide up to
\  - slide down to       ~  - vibrato
h  - hammer on           b  - Bend
p  - pull off            Suffixes for bend
t  - tap                 f  - full bend    h - half bend
ph - pinched harmonic    q  - quarter bend t - tap bend
*  - see comment         ^  - Hold bend    r release bend
x  - Stuccatto           ~  - vibrato bend
,  - slight palm mute    () - ghost note, sustained note
"  - tremolo note        <> - Trill

Tuning: drop D down one half step- C#G#C#F#A#D#

                          x3                    x4(from beginning to here)
|--------------------------|---------------------|------------------------|
|.------------------------.|--------------------.|------------------------|
|--------------------------|---------------------|------------------------|
|--------------------------|------------------4--|-----------4----------4-|
|.-0----5h6---2h3---5h6---.|--0----5h6---22-222-.|--(0)-22-222-(2)-22-222-|
|--0-00-5h600-2h300-5h600--|--0-00-5h600-22-22---|--(0)-22-22--(2)-22-22--|
     ..    ..    ..    ..       ..    ..
                          x3                   x3                        x8
|--------------------------|--------------------|-----|-------------------|
|.------------------------.|-------------------.|-----|.-----------------.|
|--------------------------|--------------------|-----|-------------------|
|--------------------------|-----------------4--|-----|-------------------|
|.-0----5h6---2h3---5h6---.|-0----5h6---22-222-.|-(0)-|.-703-703-603-603-.|
|--0-00-5h600-2h300-5h600--|-0-00-5h600-22-22---|-(0)-|--703-703-603-603--|
     ..    ..    ..    ..      ..    ..                   ..  ..  ..  ..
                                   x2                   x8
|-----------------------------------|--------------------|
|.---------------------------------.|.------------------.|
|-----------------------------------|--------------------|
|-----------------------------------|--------------------|
|.-630-630-630-666-630-630-630-689-.|.-703-703-603-603--.|
|--630-630-630-666-630-630-630-689--|--703-703-603-603---|
    ..  ..  ..      ..  ..  ..          ..  ..  ..  ..
                                   x2                                      x4
|---------------------------------|-----------------------------------------|
|.-------------------------------.|.---------------------------------------.|
|---------------------------------|-----------------------------------------|
|---------------------------------|-----------------4-----------------------|
|.630-630-630-666-630-630-630-689.|.3---6-----3-----2---3---6-----3-----1--.|
|-630-630-630-666-630-630-630-689-|-3-0-6-0-0-3-0-0---0-3-0-6-0-0-3-0-0-1-0-|
    ..  ..  ..      ..  ..  ..        .   . .   . .   .   .   . .   . .   .
         x4                                          x4        x4
|---------|-------------------------------------------|---------|
|.-------.|.-----------------------------------------.|.-------.|
|---------|-------------------------------------------|---------|
|---------|------------------4------------------------|---------|
|.-2-2-2-.|.-3---6-----3-----2---3---6-----3-----1----|.-2-2-2-.|
|--2-2-2--|--3-0-6-0-0-3-0-0---0-3-0-6-0-0-3-0-0-1-0--|--2-2-2--|
               .   . .   . .   .   .   . .   . .   .
                          x4                   x4                         x4
|--------------------------|--------------------|--------------------------|
|.------------------------.|.------------------.|.------------------------.|
|------------------"--"--"-|--------------------|------------------"--"--"-|
|-444444-4-"--"--"-9-10-12-|--444444-2-"--"--"--|-444444-4-"--"--"-9-10-12-|
|.444444-4-9-10-12--------.|.-444444-2-7-11-10-.|.444444-4-9-10-12--------.|
|-444444-4-----------------|--444444-2----------|-444444-4-----------------|

                  x4                          x4                   x4
|------------------|---------------------------|--------------------|
|.----------------.|.-------------------------.|.------------------.|
|------------------|------------------"--"--"--|--------------------|
|-444444-2-"--"--"-|-444444-4-"--"--"-9-10-12--|--444444-2-"--"--"--|
|.444444-2-7-11-10.|.444444-4-9-10-12---------.|.-444444-2-7-11-10-.|
|-444444-2---------|-444444-4------------------|--444444-2----------|

                                           x4        x4
|-------------------------------------------|---------|
|.-----------------------------------------.|.-------.|
|-------------------------------------------|---------|
|------------------4------------------------|---------|
|.-3---6-----3-----2---3---6-----3-----1---.|.-2-2-2-.|
|--3-0-6-0-0-3-0-0---0-3-0-6-0-0-3-0-0-1-0--|--2-2-2--|
     .   . .   . .   .   .   . .   . .   .
                                           x4        x4
|-------------------------------------------|---------|-----------
|'-----------------------------------------.|.-------.|-----------
|-------------------------------------------|---------|-----------
|------------------4------------------------|---------|-444444-4--
|.-3---6-----3-----2---3---6-----3-----1---.|.-2-2-2-.|-444444-4--
|--3-0-6-0-0-3-0-0---0-3-0-6-0-0-3-0-0-1-0--|--2-2-2--|-444444-4--
     .   . .   . .   .   .   . .   . .   .

e-mail me if you have any comments or questions

  Visit MetalTabs.com for more metal tablature

bottom separator

Contact Us | Privacy Policy | Disclaimer | Legal Notice
Copyright © 2001-2014 MetalTabs.com. All Rights Reserved.