top separator

Home

Forum

What's New

Submit a Tab

FAQ

Links

Contact Us

Link to Us

MetalTabs.com logo

Bands

0-9

A

B

C

D

E

F

G

H

I

J

K

L

M

N

O

P

Q

R

S

T

U

V

W

X

Y

Z

Search

What

Where
 

Skyclad - "A Bellyful of Emptyness" Guitar Tab

Plain Text Version
More Skyclad Tabs

Hits: 3559
Rated: 4.00 out of 5 (2 votes)
Updated: 2001-06-15 17:49:28

 

Important note
This tab is available online because we obtained explicit permission from Skyclad or their label.


#----------------------------------PLEASE NOTE---------------------------------#
#This file is the author's own work and represents their interpretation of the #
#song. You may only use this file for private study, scholarship, or research. #
#Unless specified otherwise, this is NOT an official tab from the band members.#
#------------------------------------------------------------------------------#

  Visit MetalTabs.com for more metal tablature
  
Skyclad "Bellyful of Emptiness"
from Prince of the Poverty Line
tabbed by: Drew Schinzel 7/21/99 <analogkid82@yahoo.com>


Legend:
-------
~ vibrato


 riff 1
|-----------------------------------|-----------------------------------|
|-----------------------------------|-----------------------------------|
|---------------------4---4---4---4-|---------------------4---4---4---4-|
|--4---4---4---4-4----4---4---4---4-|--4---4---4---4-4----4---4---4---4-|
|--4---4---4---4-4------------------|--4---4---4---4-4------------------|
|--2---2---2---2-2------------------|--2---2---2---2-2------------------|

 riff 1-A
|--------------------------------------|
|--------------------------------------|
|----------------------2---2---2---2---|
|---2---2---2---2-2----2---2---2---2---|
|---2---2---2---2-2--------------------|
|---0---0---0---0-0--------------------|

Riff 1-A is alternated with Riff 1 during the second verse
and later on in the song

 riff 2
|--------------------------------------------------|
|--------------------------------------------------|
|----------2---5---4---2---------------------------|
|--4---5---2---5---4---2--4--4--4--4---4--4--4--4--|
|--4---5---0---3---2---0--4--4--4--4---4--4--4--4--|
|--2---3------------------2--2--2--2---2--2--2--2--|

In the second chorus riff 2 is played twice, but with only one F#5 at the end

 riff 3
|-------------------------------------------------------------|
|-------------------------------------------------------------|
|-------------------------------------------------------------|
|------------4----(4)-----------------------------------------|
|--------4------4--------5-4-2---2~--2-2-2--2--4--------------|
|--2-2-2-----------------------5-----------------5--5-4-2-0-2-|
 Note in ()'s only played first time in chorus.

 riff 4
|--------------------------------------------------------|
|--------------------------------------------------------|
|--------------------------------------------------------|
|-----2-4----2----4----2-4-------0-2----0----2----0--2---|
|---4--------------------------2-------------------------|
|-2--------2----2----2-------0--------0----0----0--------|

 riff 4 second guitar
|--------------------------------------------------------|
|--------------------------------------------------------|
|--------------------------------------------------------|
|--4--------------------------2--------------------------|
|--4--------------------------2--------------------------|
|--2--------------------------0--------------------------|

 riff 4-A (used once during interlude before solo)
|--------------------------------------------------------|
|--------------------------------------------------------|
|-----2-4----2----4----2-4-------0-2----0----2----0--2---|
|---4--------------------------2-------------------------|
|-2--------2----2----2-------0--------0----0----0--------|
|--------------------------------------------------------|
The second guitar during 4-A changes to B5 A5

After playing riff 4 a few times, end with a F#5 and sustain

 riff 5
|---------------------------------------------|
|---------------------------------------------|
|------------------------------------------4--|
|-----------------------------------4------4--|
|-----------------------------------4------2--|
|--0-000-000-000-000-000-000-000-00-2---------|

 riff 6
|---------------------------------------------------------------|
|---------------------------------------------------------------|
|-2-----------------4--4--4-4---2--4--2--4----------------------|
|-2-----------------2--2--2-2---2--2--2--2----------------------|
|-0-000-000-000-00----------------------------------------------|
|---------------------------------------------0-000-000-000-00--|

 riff 7
|-----------------------------------------------------|
|-----------------------------------------------------|
|-----------------------------------------------------|
|-----------------------------------------------------|
|-----2------2-4-5-4-2----------4-----4-5-4-2---------|
|-2-2---2-2------------5-4--2-2---2-2---------5-4-2---|
 They don't do it in the song, but I think it sounds better if you
include the F# bass notes after each note on the A string.

  Visit MetalTabs.com for more metal tablature

bottom separator

Contact Us | Privacy Policy | Disclaimer | Legal Notice
Copyright © 2001-2014 MetalTabs.com. All Rights Reserved.