top separator

Home

Forum

What's New

Submit a Tab

FAQ

Links

Contact Us

Link to Us

MetalTabs.com logo

Bands

0-9

A

B

C

D

E

F

G

H

I

J

K

L

M

N

O

P

Q

R

S

T

U

V

W

X

Y

Z

Search

What

Where
 

Prong - "Thrid From The Sun" Guitar Tab

Plain Text Version
More Prong Tabs

Hits: 1727
Updated: 2006-09-06 23:49:24

 

By:

Dahmers Fridge

sendpm.gif

email.gif

Important note
This tab is available online because we obtained explicit permission from Prong or their label.


#----------------------------------PLEASE NOTE---------------------------------#
#This file is the author's own work and represents their interpretation of the #
#song. You may only use this file for private study, scholarship, or research. #
#Unless specified otherwise, this is NOT an official tab from the band members.#
#------------------------------------------------------------------------------#

  Visit MetalTabs.com for more metal tablature
  
Band:  Prong
Album: Force Fed
Song:  Third From the Sun

Copyright (c)  (Spigot) (1988)
Version 1.0 - (03/05/06)

Transcribed By: Steve
Email:          stephen.elvidge1@ntlworld.com


.  - palm mute           /  - slide up to
\  - slide down to       ~  - vibrato
h  - hammer on           b  - Bend
p  - pull off            Suffixes for bend
t  - tap                 f  - full bend    h - half bend
ph - pinched harmonic    q  - quarter bend t - tap bend
                         p  - pre bend
*  - see comment         ^  - Hold bend    r release bend
x  - Stuccatto           ~  - vibrato bend
,  - slight palm mute    () - ghost note, sustained note
"  - tremolo note        <> - harmonic

Tuning E A D G B E

 Intro

 [--PM--]
|-------------------------------------------------------------------|
|-------------------------------------------------------------------|
|-------------------------------------------------------------------|
|----------------------4-----(4)------------------------------------|
|-5--4\3-2-----(2)-----2-----(2)-----5-----(5)----/12-----(12)----\-|
|-3--2\1-0-----(0)-------------------3-----(3)----/10-----(10)----\-|


|----------------------------------------------------|
|----------------------------------------------------|
|----------------------------------------------------|
|----------------------------------------------------|
|-10----(10)---\9-----(9)----/10----(10)---\7--(7)---|
|-8-----(8)----\7-----(7)----/8-----(8)----\5--(5)---|

 [--PM--]
|-------------------------------------------------------------------|
|-------------------------------------------------------------------|
|-------------------------------------------------------------------|
|----------------------4-----(4)------------------------------------|
|-5--4\3-2-----(2)-----2-----(2)-----5-----(5)----/12-----(12)----\-|
|-3--2\1-0-----(0)-------------------3-----(3)----/10-----(10)----\-|


|--------0-----(0)-----0-----(0)------------------------------|
|-------------------------------------------------------------|
|-------------------------------------------------------------|
|-------------------------------------------------------------|
|-10----(10)---\9-----(9)----/10-----------(10)-------------\-|
|-8-----(8)----\7-----(7)----/8------------(8)--------------\-|


|-------------------------------------------------------------------|
|-------------------------------------------------------------------|
|-------------------------------------------------------------------|
|-2-2-2-2-2-2-2-2-2-2-2-2-2-2-2-2-2-2-2-2-2-2-2-2-2-2-2-2-2-2-2-2-2-|
|-0-0-0-0-0-0-0-0-0-0-0-0-0-0-0-0-0-0-0-0-0-0-0-0-0-0-0-0-0-0-0-0-0-|
|-------------------------------------------------------------------|


|-------------------------------------------------------------------|
|-------------------------------------------------------------------|
|-------------------------------------------------------------------|
|-2-2-2-2-2-2-2-2-2-2-2-2-2-2-2-2-2-2-2-2-2-2-2-2-2-2-2-2-2-2-2-2-2-|
|-0-0-0-0-0-0-0-0-0-0-0-0-0-0-0-0-0-0-0-0-0-0-0---0---0---0---0---0-|
|-------------------------------------------------------------------|

 Let notes ring out

 Guitar on own

|---0---0---0----------------------|
|-----0---------0---3---3---3---3--|
|---------------------2------------|
|-2-----------1---0----------------|
|---------2---------------0--------|
|----------------------------3-----| Rpt 4 X

 Guitar 2 enters 4th time
 [-----------PM----------]
|--------------------------------------|
|--------------------------------------|
|--------------------------------------|
|-5-------4-------3-------2--2---------|
|-3-3-3-3-2-2-2-2-1-1-1-1-0--0--5--5/--|
|-------------------------------3--3/--|

 Verse

  [-PM-]  [-PM-] [-PM-]    [-PM-] [--PM--]ph~~ ph~ph[--PM--]ph~~ ph~ph
|----------------------------------------------------------------------|
|----------------------------------------------------------------------|
|----------------------------------------------------------------------|
|-4--4-----------------------------------------------------------------|
|-2--2-----5-5-5--7--7-----3-3-3--2-2-2-2-2-------5-2-2-2-2-2--------5-|
|----------3-3-3--5--5-----1-1-1--0-0-0-0------3----0-0-0-0-------3----|


  [-PM-]  [-PM-] [-PM-]    [-PM-] [--PM--]ph~~ ph~ph[--PM--]ph~~ ph~ph
|----------------------------------------------------------------------|
|----------------------------------------------------------------------|
|----------------------------------------------------------------------|
|-4--4-----------------------------------------------------------------|
|-2--2-----5-5-5-/7--7-----3-3-3--2-2-2-2-2-------5-2-2-2-2-2--------5-|
|----------3-3-3-/5--5-----1-1-1--0-0-0-0------3----0-0-0-0-------3----|




 Chorus

|---0---0---0----------------------|
|-----0---------0---3---3---3---3--|
|---------------------2------------|
|-2-----------1---0----------------|
|---------2---------------0--------|
|----------------------------3-----| Rpt 4 X

 Guitar 2 enters 4th time
 [-----------PM----------]
|--------------------------------------|
|--------------------------------------|
|--------------------------------------|
|-5-------4-------3-------2--2---------|
|-3-3-3-3-2-2-2-2-1-1-1-1-0--0--5--5/--|
|-------------------------------3--3/--|

 Rpt Verse
 Rpt Chorus

 Guitar 1
       phphphph ph~~~     phph             phphphph ph~~
[-------------------------------0---0-------------------|
[---------------------------------3---------------------|
[------5-4----------------5-4--------------5-4----------|
[-----------------------------0-------------------------|
[-2--2-----2-2-------2--2-------------2--2-----2-2------|
[-0--0----------2----0--0-------------0--0----------2---|
[Guitar 2
[-------------------------------------------------------|
[-------------------------------------------------------|
[-------------------------------------------------------|
[-------------------------------------------------------|
[-2--2-2-------/7-\--2--2-2--/5-------2--2-2------/9\---|
[-0--0---------------0--0-------------0--0--------------|

 Guitar 1
                          phphphph ph~~~     phph
[--------------------------------------------------0---0-|
[----------------------------------------------------3---|
[------2-1----------------5-4----------------4-1---------|
[----------0------------------2-2----------------0-------|
[-2--2---------------2--2---------------2--2-------------|
[-0--0---------------0--0----------2----0--0-------------|
[Guitar 2
[--------------------------------------------------------|
[--------------------------------------------------------|
[--------------------------------------------------------|
[--------------------------------------------------------|
[-2--2-2--/5---------2--2-2-------/7----2--2-2--/5-------|
[-0--0---------------0--0---------------0--0-------------|
[Guitar 3
[----------------------------------0---------------------|
[------3-------12b--------0------------------------------|
[--------------------------------------------------------|
[--------------------------------------------------------|
[--------------------------------------------------------|
[--------------------------------------------------------|

 Guitar 1
       phphphph ph~~~     phph
[-------------------------------0---0-|
[---------------------------------3---|
[------5-4----------------2-1---------|
[-----------------------------0-------|
[-2--2-----2-2-------2--2-------------|
[-0--0----------2----0--0-------------|
[Guitar 2
[-------------------------------------|
[-------------------------------------|
[-------------------------------------|
[-------------------------------------|
[-2--2-2-------/7-\--2--2-2--/5-------|
[-0--0---------------0--0-------------|
[Guitar 3
[---------------0---------------------|
[------0------------------------------|
[-------------------------------------|
[-------------------------------------|
[-------------------------------------|
[-------------------------------------|

 Guitar 1
 PM   ph  phph    ph
[-----3---------3-----1--------1----|
[-------0---------------------------|
[---------1-0-/4--4-----2--------2--|
[-------------------------1-3/------|
[-5-5--------------\3---------------|
[-3-3--------------\1---------------|
[Guitar 2
[ PM
[-----------------------------------|
[-----------------------------------|
[-----------------------------------|
[-----------------------------------|
[-5-5-----(5)------\3------(3)------|
[-3-3-----(3)------\1------(1)------|

 Guitar 1
       phphphph ph~~~     phph
[-------------------------------0---0-|
[---------------------------------3---|
[------5-4----------------2-1---------|
[-----------------------------0-------|
[-2--2-----2-2-------2--2-------------|
[-0--0----------2----0--0-------------|
[Guitar 2
[-------------------------------------|
[-------------------------------------|
[-------------------------------------|
[-------------------------------------|
[-2--2-2-------/7-\--2--2-2--/5-------|
[-0--0---------------0--0-------------|
[Guitar 3
[---------------0---------------------|
[------0------------------------------|
[-------------------------------------|
[-------------------------------------|
[-------------------------------------|
[-------------------------------------|


 Guitar 1
 PM   ph  phph    ph
[-----3---------3-----1--------1----|
[-------0---------------------------|
[---------1-0-/4--4-----2--------2--|
[-------------------------1-3/------|
[-5-5--------------\3---------------|
[-3-3--------------\1---------------|
[Guitar 2
[ PM
[-----------------------------------|
[-----------------------------------|
[-----------------------------------|
[-----------------------------------|
[-5-5-----(5)------\3------(3)------|
[-3-3-----(3)------\1------(1)------|

Guitar 1
       phphphph ph~~~     phphphphph~~
[-------------------------------------|
[-------------------------------------|
[------5-4----------------2-1---------|
[-----------------------------0-0-----|
[-2--2-----2-2-------2--2-------------|
[-0--0----------2----0--0---------2---|
[Guitar 2
[-------------------------------------|
[-------------------------------------|
[-------------------------------------|
[-------------------------------------|
[-2--2-2-------/7-\--2--2-2-2-2-2-2-2-|
[-0--0---------------0--0-0-0-0-0-0-0-|

 Rpt Verse
 Rpt Chorus



|-------------------------------------------------------------------|
|-------------------------------------------------------------------|
|-------------------------------------------------------------------|
|-------------------------------------------------------------------|
|-2---------------------------(2)-----------------------------------|
|-0---------------------------(0)-----------------------------------|

 Drums on own

 Guitar 1
  [--PM--]       [PM]   [--PM--]         [PM]   [--PM--]
[----------------------------------------------------------------|
[----------------------------------------------------------------|
[----------------------------------------------------------------|
[---------3--(3)-----5-----------3--(3)------3----------3--(3)---|
[-5-5-5-5-1--(1)-5-5-3---5-5-5-5-1--(1)--5-5-1--5-5-5-5-1--(1)---|
[-3-3-3-3--------3-3-----3-3-3-3---------3-3----3-3-3-3----------|
[Guitar 2
[ [--PM--]       [PM]   [--PM--]         [PM]   [--PM--]
[----------------------------------------------------------------|
[----------------------------------------------------------------|
[----------------------------------------------------------------|
[----------------------------------------------------------------|
[-5-5-5-5--------5-5-----5-5-5-5---------5-5----5-5-5-5----------|
[-3-3-3-3--------3-3-----3-3-3-3---------3-3----3-3-3-3----------|

 Guitar 1
  [PM]   [--PM--]
[------------------------------------|
[------------------------------------|
[------------------------------------|
[-----5-----------3--(3)-------------|
[-5-5-3---5-5-5-5-1--(1)-------------|
[-3-3-----3-3-3-3--------------------|
[Guitar 2
[ [PM]   [--PM--]
[------------------------------------|
[------------------------------------|
[------------------------------------|
[------------------------------------|
[-5-5-----5-5-5-5--------------------|
[-3-3-----3-3-3-3--------------------|
[ Guitar 3
[------------------------------------|
[------------------------------------|
[-----------------<5>pull up on trem-|
[------------------------------------|
[------------------------------------|
[------------------------------------|


 Guitar 1
  [--PM--]       [PM]   [--PM--]         [PM]   [--PM--]
[----------------------------------------------------------------|
[----------------------------------------------------------------|
[----------------------------------------------------------------|
[---------3--(3)-----5-----------3--(3)------3----------3--(3)---|
[-5-5-5-5-1--(1)-5-5-3---5-5-5-5-1--(1)--5-5-1--5-5-5-5-1--(1)---|
[-3-3-3-3--------3-3-----3-3-3-3---------3-3----3-3-3-3----------|
[Guitar 2
[ [--PM--]       [PM]   [--PM--]         [PM]   [--PM--]
[----------------------------------------------------------------|
[----------------------------------------------------------------|
[----------------------------------------------------------------|
[----------------------------------------------------------------|
[-5-5-5-5--------5-5-----5-5-5-5---------5-5----5-5-5-5----------|
[-3-3-3-3--------3-3-----3-3-3-3---------3-3----3-3-3-3----------|

 Guitar 1
  [PM]   [--PM--]          ph~~~~
[------------------------------------|
[------------------------------------|
[------------------------------------|
[-----5-----------3--(3)-------------|
[-5-5-3---5-5-5-5-1--(1)---1b--------|
[-3-3-----3-3-3-3--------------------|
[Guitar 2
[ [PM]   [--PM--]
[------------------------------------|
[------------------------------------|
[------------------------------------|
[------------------------------------|
[-5-5-----5-5-5-5--------------------|
[-3-3-----3-3-3-3--------------------|


 Drums on own


 Guitar 1
  [--PM--]       [PM]   [--PM--]         [PM]   [--PM--]
[----------------------------------------------------------------|
[----------------------------------------------------------------|
[----------------------------------------------------------------|
[---------3--(3)-----5-------------------------------------------|
[-5-5-5-5-1--(1)-5-5-3---5-5-5-5---------5-5----5-5-5-5----------|
[-3-3-3-3--------3-3-----3-3-3-3---------3-3----3-3-3-3----------|
[Guitar 2
[ [--PM--]       [PM]   [--PM--]         [PM]   [--PM--]
[----------------------------------------------------------------|
[----------------------------------------------------------------|
[----------------------------------------------------------------|
[----------------------------------------------------------------|
[-5-5-5-5--------5-5-----5-5-5-5---------5-5----5-5-5-5----------|
[-3-3-3-3--------3-3-----3-3-3-3---------3-3----3-3-3-3----------|

 Guitar 1
  [PM]
[---------|
[---------|
[---------|
[---------|
[-5-5-----|
[-3-3-----|
[Guitar 2
[ [PM]
[---------|
[---------|
[---------|
[---------|
[-5-5-----|
[-3-3-----|


 Guitar 1
  [--PM--]       [PM]   [--PM--]         [PM]   [--PM--]
[----------------------------------------------------------------|
[----------------------------------------------------------------|
[----------------------------------------------------------------|
[---------3--(3)-----5-----------3--(3)------3-------------------|
[-5-5-5-5-1--(1)-5-5-3---5-5-5-5-1--(1)--5-5-1--5-5-5-5----------|
[-3-3-3-3--------3-3-----3-3-3-3---------3-3----3-3-3-3----------|
[Guitar 2
[ [--PM--]       [PM]   [--PM--]         [PM]   [--PM--]
[----------------------------------------------------------------|
[----------------------------------------------------------------|
[----------------------------------------------------------------|
[----------------------------------------------------------------|
[-5-5-5-5--------5-5-----5-5-5-5---------5-5----5-5-5-5----------|
[-3-3-3-3--------3-3-----3-3-3-3---------3-3----3-3-3-3----------|


 Guitar 1
  [PM]   [--PM--]
[--------------------------|
[--------------------------|
[--------------------------|
[-----5--------------------|
[-5-5-3---5-5-5-5----------|
[-3-3-----3-3-3-3----------|
[Guitar 2
[ PM]   [--PM--]
[--------------------------|
[--------------------------|
[--------------------------|
[--------------------------|
[-5-5-----5-5-5-5----------|
[-3-3-----3-3-3-3----------|



 Guitar 1
  [--PM--]       [PM]   [--PM--]         [PM]   [--PM--]
[----------------------------------------------------------------|
[----------------------------------------------------------------|
[----------------------------------------------------------------|
[---------3--(3)-----5-----------3--(3)------3----------3--(3)---|
[-5-5-5-5-1--(1)-5-5-3---5-5-5-5-1--(1)--5-5-1--5-5-5-5-1--(1)---|
[-3-3-3-3--------3-3-----3-3-3-3---------3-3----3-3-3-3----------|
[Guitar 2
[ [--PM--]       [PM]   [--PM--]         [PM]   [--PM--]
[----------------------------------------------------------------|
[----------------------------------------------------------------|
[----------------------------------------------------------------|
[----------------------------------------------------------------|
[-5-5-5-5--------5-5-----5-5-5-5---------5-5----5-5-5-5----------|
[-3-3-3-3--------3-3-----3-3-3-3---------3-3----3-3-3-3----------|

 Guitar 1
  [PM]   [--PM--]          ph~~~~
[------------------------------------|
[------------------------------------|
[------------------------------------|
[-----5-----------3--(3)-------------|
[-5-5-3---5-5-5-5-1--(1)---1b--------|
[-3-3-----3-3-3-3--------------------|
[Guitar 2
[ [PM]   [--PM--]
[------------------------------------|
[------------------------------------|
[------------------------------------|
[------------------------------------|
[-5-5-----5-5-5-5--------------------|
[-3-3-----3-3-3-3--------------------|



 Guitar 1
  [--PM--]       [PM]   [--PM--]         [PM]   [--PM--]
[----------------------------------------------------------------|
[----------------------------------------------------------------|
[----------------------------------------------------------------|
[---------3--(3)-----5-----------3--(3)------3----------3--(3)---|
[-5-5-5-5-1--(1)-5-5-3---5-5-5-5-1--(1)--5-5-1--5-5-5-5-1--(1)---|
[-3-3-3-3--------3-3-----3-3-3-3---------3-3----3-3-3-3----------|
[Guitar 2
[ [--PM--]       [PM]   [--PM--]         [PM]   [--PM--]
[----------------------------------------------------------------|
[----------------------------------------------------------------|
[----------------------------------------------------------------|
[----------------------------------------------------------------|
[-5-5-5-5--------5-5-----5-5-5-5---------5-5----5-5-5-5----------|
[-3-3-3-3--------3-3-----3-3-3-3---------3-3----3-3-3-3----------|

 Guitar 1
  [PM]   [--PM--]
[------------------------------------|
[------------------------------------|
[------------------------------------|
[-----5-----------3--(3)-------------|
[-5-5-3---5-5-5-5-1--(1)-------------|
[-3-3-----3-3-3-3--------------------|
[Guitar 2
[ [PM]   [--PM--]          ph~~~~
[------------------------------------|
[------------------------------------|
[------------------------------------|
[-----------------3--(3)-------------|
[-5-5-----5-5-5-5-1--(1)---1b--------|
[-3-3-----3-3-3-3--------------------|


 Guitar 1
  [--PM--]       [PM]   [--PM--]         [PM]   [--PM--]
[----------------------------------------------------------------|
[----------------------------------------------------------------|
[----------------------------------------------------------------|
[---------3--(3)-----5-----------3--(3)------3----------3--(3)---|
[-5-5-5-5-1--(1)-5-5-3---5-5-5-5-1--(1)--5-5-1--5-5-5-5-1--(1)---|
[-3-3-3-3--------3-3-----3-3-3-3---------3-3----3-3-3-3----------|
[Guitar 2
[ [--PM--]       [PM]   [--PM--]         [PM]   [--PM--]
[----------------------------------------------------------------|
[----------------------------------------------------------------|
[----------------------------------------------------------------|
[----------------------------------------------------------------|
[-5-5-5-5--------5-5-----5-5-5-5---------5-5----5-5-5-5----------|
[-3-3-3-3--------3-3-----3-3-3-3---------3-3----3-3-3-3----------|

 Guitar 1
  [PM]   [--PM--]          ph~~~~
[------------------------------------|
[------------------------------------|
[------------------------------------|
[-----5-----------3--(3)-------------|
[-5-5-3---5-5-5-5-1--(1)---1b--------|
[-3-3-----3-3-3-3--------------------|
[Guitar 2
[ [PM]   [--PM--]
[------------------------------------|
[------------------------------------|
[------------------------------------|
[------------------------------------|
[-5-5-----5-5-5-5--------------------|
[-3-3-----3-3-3-3--------------------|

 Drums on own


 Guitar 1
  [--PM--]       [PM]   [--PM--]         [PM]   [--PM--]
[----------------------------------------------------------------|
[----------------------------------------------------------------|
[----------------------------------------------------------------|
[---------3--(3)-----5-----------3--(3)------3----------3--(3)---|
[-5-5-5-5-1--(1)-5-5-3---5-5-5-5-1--(1)--5-5-1--5-5-5-5-1--(1)---|
[-3-3-3-3--------3-3-----3-3-3-3---------3-3----3-3-3-3----------|
[Guitar 2
[ [--PM--]       [PM]   [--PM--]         [PM]   [--PM--]
[----------------------------------------------------------------|
[----------------------------------------------------------------|
[----------------------------------------------------------------|
[----------------------------------------------------------------|
[-5-5-5-5--------5-5-----5-5-5-5---------5-5----5-5-5-5----------|
[-3-3-3-3--------3-3-----3-3-3-3---------3-3----3-3-3-3----------|

 Guitar 1
  [PM]   [--PM--]          ph~~~~
[------------------------------------|
[------------------------------------|
[------------------------------------|
[-----5-----------3--(3)-------------|
[-5-5-3---5-5-5-5-1--(1)---1b--------|
[-3-3-----3-3-3-3--------------------|
[Guitar 2
[ [PM]   [--PM--]
[------------------------------------|
[------------------------------------|
[------------------------------------|
[------------------------------------|
[-5-5-----5-5-5-5--------------------|
[-3-3-----3-3-3-3--------------------|



 Guitar 1
  [--PM--]       [PM]   [--PM--]         [PM]   [--PM--]
[----------------------------------------------------------------|
[----------------------------------------------------------------|
[----------------------------------------------------------------|
[---------3--(3)-----5-----------3--(3)------3----------3--(3)---|
[-5-5-5-5-1--(1)-5-5-3---5-5-5-5-1--(1)--5-5-1--5-5-5-5-1--(1)---|
[-3-3-3-3--------3-3-----3-3-3-3---------3-3----3-3-3-3----------|
[Guitar 2
[ [--PM--]       [PM]   [--PM--]         [PM]   [--PM--]
[----------------------------------------------------------------|
[----------------------------------------------------------------|
[----------------------------------------------------------------|
[----------------------------------------------------------------|
[-5-5-5-5--------5-5-----5-5-5-5---------5-5----5-5-5-5----------|
[-3-3-3-3--------3-3-----3-3-3-3---------3-3----3-3-3-3----------|

 Guitar 1
  [PM]   [-----------PM----------]
[----------------------------------|
[----------------------------------|
[----------------------------------|
[-----5----------------------------|
[-5-5-3---5--5--5--5-5-5-5--5-5-5--|
[-3-3-----3--3--3--3-3-3-3--3-3-3--|
[Guitar 2
[ [PM]   [-----------PM-----------]
[----------------------------------|
[----------------------------------|
[----------------------------------|
[----------------------------------|
[-5-5-----5--5--5--5-5-5-5--5-5-5--|
[-3-3-----3--3--3--3-3-3-3--3-3-3--|

 Rpt Chorus 3 X

|------------------------------------------------------------------|
|------------------------------------------------------------------|
|------------------------------------------------------------------|
|------------------------------------------------------------------|
|-2-----(2)------2-2-2-2-2-2-2-2-2-2-2-2-2-2-2-2-2-2---------------|
|-0-----(0)------0-0-0-0-0-0-0-0-0-0-0-0-0-0-0-0-0-0--etc----------|


|-----------------------------------------------------------------|
|-----------------------------------------------------------------|
|-----------------------------------------------------------------|
|-----------------------------------------------------------------|
|-2---2---2---2----2----2----2-----2------2------2-----(2)------2-|
|-0---0---0---0----0----0----0-----0------0------0-----(0)------0-|


END

  Visit MetalTabs.com for more metal tablature

bottom separator

Contact Us | Privacy Policy | Disclaimer | Legal Notice
Copyright © 2001-2014 MetalTabs.com. All Rights Reserved.