top separator

Home

Forum

What's New

Submit a Tab

FAQ

Links

Contact Us

Link to Us

MuSpy.com

MetalTabs.com logo

Bands

0-9

A

B

C

D

E

F

G

H

I

J

K

L

M

N

O

P

Q

R

S

T

U

V

W

X

Y

Z

Search

What

Where
 

StrommoussHeld - "La Masquerade" Guitar Tab

Plain Text Version
More StrommoussHeld Tabs

Hits: 1295
Rated: 5.00 out of 5 (1 vote)
Updated: 2006-09-06 23:45:59

 

By:

sendpm.gif

email.gif

Important note
This tab is available online because we obtained explicit permission from StrommoussHeld or their label.


#----------------------------------PLEASE NOTE---------------------------------#
#This file is the author's own work and represents their interpretation of the #
#song. You may only use this file for private study, scholarship, or research. #
#Unless specified otherwise, this is NOT an official tab from the band members.#
#------------------------------------------------------------------------------#

  Visit MetalTabs.com for more metal tablature
  
Band:  StrommoussHeld
Album: Behind the Curtain
Song:  La Masquerade

Copyright (c)  Avantgarde Music 2003
Version 1.0 - 01.09.06

Transcribed By: eRyahXa0S/Darth Wojtex
Email:          darthwojtex@interia.pl


_pm   - palm mute
\ /   - slides
h     - hammer on
p     - pull off
t     - tap
ah/nh - harmonics
~     - vibrato
p
s     - pick slide
b     - bend
*     - see comment


Tuning C#F#BEG#C#

synth intro

riff1 x4

|--------------------------------------|
|--------------------------------------|
|--------------------------------------|
|--------------------------------------|
|-666666666666444444447777767666666676-|
|-444444444444222222225555545444444454-|

riff 2

|---------------------------------|
|---------------------------------|
|---------------------------------|
|---------------------------------|
|-6-9~6-8-6-9~6-8-6-9~6-8-6-9~6-4-|
|-4-7~4-6-4-7~4-6-4-7~4-6-4-7~4-2-|

riff 3 x4

  *
|---------------------------------------|
|---------------------------------------|
|---------------------------------------|
|-p-------------------------------------|
|-s-6---------6-6---------6-6---------4-|
|---4-44-4444-5-4-44-4444-5-4-44-4444-2-|
      __ ____pm   __ ____pm   __ ____pm
* only when played first time

riff 1 x 4

riff 4 x 4

|--------------------------|
|--------------------------|
|--------------------------|
|--------------------------|
|-777777777777666666666666-|
|-555555555555444444444444-|

lead 1 x2

|----------------------------------------|
|-14-16-16-14----14-16-16-14-------------|
|-------------13-------------13----------|
|-------------------------------14-13-14-|
|----------------------------------------|
|----------------------------------------|

riff 5 x1

|--------------------------|
|--------------------------|
|--------------------------|
|-------------666666666666-|
|-777777777777444444444444-|
|-555555555555-------------|

lead 2 x1

|-----------------------------------------|
|-14-16-16-14-17--14-16-16-14-17-16-14----|
|--------------------------------------13-|
|-----------------------------------------|
|-----------------------------------------|
|-----------------------------------------|

riff 4 + lead 2 x1

riff 2

feedback

  a.h.a.h
|-11b-10b-|
|---------|
|---------|
|---------|
|---------|
|---------|

riff 4 + lead 1 + feedback x 2
riff 5 + lead 2 + feedback x 2

riff 3 x 4

riff 6

|--------------|
|--------------|
|--------------|
|-8-6----------|
|-8-6-let ring-|
|-6-4----------|

riff 1 x6

synth ending

  Visit MetalTabs.com for more metal tablature

bottom separator

Contact Us | Privacy Policy | Disclaimer | Legal Notice
Copyright © 2001-2014 MetalTabs.com. All Rights Reserved.