top separator

Home

Forum

What's New

Submit a Tab

FAQ

Links

Contact Us

Link to Us

MetalTabs.com logo

Bands

0-9

A

B

C

D

E

F

G

H

I

J

K

L

M

N

O

P

Q

R

S

T

U

V

W

X

Y

Z

Search

What

Where
 

Burzum - "Feeble Screams From Forests Unknown" Bass Tab

Plain Text Version
More Burzum Tabs

Hits: 2905
Updated: 2006-09-06 23:44:20

 

By:

sendpm.gif

email.gif

Important note
This tab is available online because we obtained explicit permission from Burzum or their label.


#----------------------------------PLEASE NOTE---------------------------------#
#This file is the author's own work and represents their interpretation of the #
#song. You may only use this file for private study, scholarship, or research. #
#Unless specified otherwise, this is NOT an official tab from the band members.#
#------------------------------------------------------------------------------#

  Visit MetalTabs.com for more metal tablature
  
ARTIST: Burzum
SONG: Feeble screams from forest unknown
ALBUM: Burzum/Aske (1994 Mysantrophy), Track 1
Tab Transcribed by:Narciso
Email:Flyingsoul@darksites.com

Riff:1
G|-------------------------------------------------------|
D|-2-4-5-5-5-5-5-5-5-5-5-5-5-2-4-5-2-2-2-2-2-2-2-2-2-2-2-|
A|-------------------------------------------------------|
E|-------------------------------------------------------|

Riff:2
G|-------------------------------------|
D|-5-6-5-3-5-7-6-5-3-5-6-5-3-5-7-6-5---|
A|-----------------------------------5-|
E|-------------------------------------|

Riff:3
G|-3-3-3-|
D|-------|
A|-------|
E|-------|

Riff:4
G|-----------------------------------------------|
D|-5-5-5-7-9-5-5-5-7-9-5-5-5-7-3-3-3-7-6-3-3-5-7-|
A|-----------------------------------------------|
E|-----------------------------------------------|

Riff:5
G|-------------------------------------------|
D|-5-5-5-5-------------------------3-3-3-3-3-|
A|---------2-3-3-3-3-3-3-2-2-2-2-2-----------|
E|-------------------------------------------|

Riff:6
G|-------|
D|-3-2-5-|
A|-------|
E|-------|

Riff:7
G|-----------------|
D|-5-5-5-5-7-7-9-9-|
A|-----------------|
E|-----------------|

Riff:8
G|-------------------------------------|
D|-3-3-3-3-2-2-2-2-2-2-2-2-2-2-2-2-2-2-|
A|-------------------------------------|
E|-------------------------------------|

Riff:9
G|-----------------------------------------------|
D|-----------------------------------------------|
A|-----------------------------------------------|
E|-3-3-3-3-3-2-2-2-2-2-2-2-2-2-2-2-2-0-0-0-0-0-0-|

Riff:10
G|------------|
D|------------|
A|------------|
E|-3--2----0--|


Riff:11
G|--------|
D|--------|
A|--------|
E|-2----0-|

Riff:12
G|-----------------------------------------------------------------|
D|---------5-5-5-5---------5-5-5-5---------------------------------|
A|-3-3-3-3---------3-3-3-3-----------------4-4-4-4---------4-4-4-4-|
E|---------------------------------2-2-2-2---------2-2-2-2---------|

Riff:13
G|-------------------|
D|-------------------|
A|-----------8-8-8-8-|
E|-6-6-6-6-----------|

Riff:14
G|--------------------|
D|--------------------|
A|----------8-8-8-8---|
E|-6-6-6-6----------6-|

(00:03)  Riff 1 2x
(00:17)  Riff 2 4x
(00:31)  Riff 3 4x
(00:44)  Riff 2 4x
(00:59)  Riff 1 4x
(01:13)  Riff 4 4x
(01:50)  Riff 5 4x
(02:18)  Riff 4 2x
(02:50)  Riff 6 4x
(03:05)  Riff 7 4x
(03:20)  Riff 8 4x
(03:45)  Riff 9 4x
(04:09)  Riff 10 4x
(04:31)  Riff 11 1x
(05:11)  Riff 12 8x
(06:21)  Riff 13 15x
(07:13)  Riff 14 1x

  Visit MetalTabs.com for more metal tablature

bottom separator

Contact Us | Privacy Policy | Disclaimer | Legal Notice
Copyright © 2001-2014 MetalTabs.com. All Rights Reserved.