top separator

Home

Forum

What's New

Submit a Tab

FAQ

Links

Contact Us

Link to Us

MetalTabs.com logo

Bands

0-9

A

B

C

D

E

F

G

H

I

J

K

L

M

N

O

P

Q

R

S

T

U

V

W

X

Y

Z

Search

What

Where
 

Skyclad - "Terminus" Guitar Tab

Plain Text Version
More Skyclad Tabs

Hits: 3148
Rated: 5.00 out of 5 (1 vote)
Updated: 2001-06-15 17:47:59

 

Important note
This tab is available online because we obtained explicit permission from Skyclad or their label.


#----------------------------------PLEASE NOTE---------------------------------#
#This file is the author's own work and represents their interpretation of the #
#song. You may only use this file for private study, scholarship, or research. #
#Unless specified otherwise, this is NOT an official tab from the band members.#
#------------------------------------------------------------------------------#

  Visit MetalTabs.com for more metal tablature
  
Skyclad "Terminus"
Wayward Sons of Mother Earth
tabbed by: Drew Schinzel <analogkid82@yahoo.com>
July '99

Legend:
-------
h hammer on
p pull off
~ vibrato
/ slide up
\ slide down


Standard Tuning


 Intro riff.  Arranged for one guitar as best as possible.  No, the notes aren't misaligned..
 arpeggiate the powerchords really quickly.
|-------------------------------------------|
|-------------------------------------------|
|-------------------------------------------|
|--7--7--7--7--7--7---8--8--8--10--10--8----|
|-5--5--5--5--5--5---6--6--6--8---8---6-----|
|-------------------------------------------|

|-------------------------------------------|
|-------------------------------------------|
|-------------------------------------------|
|--7--7--7--7--7--7---5--5--5---4--4---5----|
|-5--5--5--5--5--5---3--3--3---2--2---3-----|
|-------------------------------------------|


 intro solo/riff
|--------------------------------------------------------------------|
|----15----------16---------18---------------------------------------|
|-14----14~---15----15---17----17--15--14~--12~--11~--12-11----------|
|-----------------------------------------------------------13-12~---|
|--------------------------------------------------------------------|
|--------------------------------------------------------------------|

|------------------------|
|------------------------|
|------------------------|
|-10--12--13-12h13p12~~~-|
|------------------------|
|------------------------|

|---------------------------------------------------------------|
|----15----------16---------18----------------------------------|
|-14----14~---15----15---17----17--15--14~--12~--11~--12--14~---|
|---------------------------------------------------------------|
|---------------------------------------------------------------|
|---------------------------------------------------------------|

|-------------------------|
|---------------13--15~---|
|-------------------------|
|-15--13h15p13------------|
|-------------------------|
|-------------------------|

riff lead-in           riff A
|-------------------|--------------------------------------|
|-------------------|--------------------------------------|
|---3---4---5---6---|--7-------6-------7-------8-----------|
|---3---4---5---6---|--7-------6-------7-------8-----------|
|-0-1-0-2-0-3-0-4---|--5-------4-------5-------6-----------|
|-------------------|----0-0-0---0-0-0---0-0-0---0-0-0-----|

 ending                           riff B  end with riff A lead-in
|---------------------------|---------------------------------------|
|---------------------------|---------------------------------------|
|-----7----8--7-6-----------|-2-2-2-2--3-3-3-3--2-2-2-2--8-8-8-8----|
|---7----8--------7-6-------|-2-2-2-2--3-3-3-3--2-2-2-2--8-8-8-8----|
|-5----6--------------7-6---|-0-0-0-0--1-1-1-1--0-0-0-0--6-6-6-6----|
|---------------------------|---------------------------------------|

riff C  This is how i play it - it's difficult to hear clearly on the CD
|---------------------------------------------|
|---------------------------------------------|
|---------------------------------------------|
|-6/7--6/7--9\7--6/7--6/7--6/7--6\4-4-4-------|
|-6/7--6/7--9\7--6/7--6/7--6/7--6\4-4-4-------|
|-4/5--4/5--7\5--4/5--4/5--4/5--4\2-2-2-------|

|------------------------------------------|
|------------------------------------------|
|------------------------------------------|
|-6/7--6/7--9\7--6/7--6/7--6/7--10-10-10---|
|-6/7--6/7--9\7--6/7--6/7--6/7---8--8--8---|
|-4/5--4/5--7\5--4/5--4/5--4/5---8--8--8---|

Riff A-1
|-----------------------------------------------------------|
|-----------------------------------------------------------|
|--7-----7-6--------7-----7-8--------7-----7-6-------7------|
|--7-----7-6--------7-----7-8--------7-----7-6-------7------|
|--5-----5-4--------5-----5-6--------5-----5-4-------5------|
|----0-0-----0-0-0----0-0-----0-0-0----0-0-----0-0-0--------|

 riff D
|-----------------------------------------|
|-----------------------------------------|
|-----------------------------------------|
|-----4------5-----4---5------------------|
|-2-2----2-3---2-2---2---3----------------|
|-----------------------------------------|

 riff E
|-------------------------------------------|-------------------------------------------|
|-------------------------------------------|-------------------------------------------|
|-4-----4------5--4-----4-------8--7--------|-4-----4------5--2-----2-----4-------------|
|-4-----4------5--4-----4-------8--7--------|-4-----4------5--2-----2-----4-------------|
|-2-2-2-2-2-2--3--2-2-2-2--2-2--6--5--------|-2-2-2-2-2-2--3--0-0-0-0-0-0-2-------------|
|-------------------------------------------|-------------------------------------------|

 riff F
|---------------------------------------|---------------------------------------|
|---------------------------------------|---------------------------------------|
|--5-----5-----8-7--4-----4-----2-------|--5-----5-----8-7--4-------------------|
|--5-----5-----8-7--4-----4-----2-------|--5-----5-----8-7--4-------------------|
|--3-3-3-3-3-3-6-5--2-2-2-2-2-2-0-------|--3-3-3-3-3-3-6-5--2-2-2-2-2-2-2-2-----|
|---------------------------------------|---------------------------------------|

 fill 1
|------------------|------------------|----|
|------------------|------------------|----|
|--4------4-----2--|--4------4-----5--|--4-|
|--4------4-----2--|--4------4-----5--|--4-|
|--2-2-2--2-2-2-0--|--2-2-2--2-2-2-3--|--2-|
|------------------|------------------|----|

  Visit MetalTabs.com for more metal tablature

bottom separator

Contact Us | Privacy Policy | Disclaimer | Legal Notice
Copyright © 2001-2014 MetalTabs.com. All Rights Reserved.