top separator

Home

Forum

What's New

Submit a Tab

FAQ

Links

Contact Us

Link to Us

MetalTabs.com logo

Bands

0-9

A

B

C

D

E

F

G

H

I

J

K

L

M

N

O

P

Q

R

S

T

U

V

W

X

Y

Z

Search

What

Where
 

Pazuzu (AT) - "Outro" Guitar Tab

Plain Text Version
More Pazuzu (AT) Tabs

Hits: 1816
Rated: 4.50 out of 5 (2 votes)
Updated: 2006-10-26 08:38:16

 

By:

Lord_Seth

sendpm.gif

email.gif

Important note
We did our best to reach Pazuzu (AT) and ask for their permission to publish this tab. Unfortunately they did not respond to our requests or we could not find a way to contact them. This tab is available online until Pazuzu (AT) tells us to take it down.


#----------------------------------PLEASE NOTE---------------------------------#
#This file is the author's own work and represents their interpretation of the #
#song. You may only use this file for private study, scholarship, or research. #
#Unless specified otherwise, this is NOT an official tab from the band members.#
#------------------------------------------------------------------------------#

  Visit MetalTabs.com for more metal tablature
  
Band:  Pazuzu
Album: Awaken The Dragon
Song:  Outro

Copyright (c)  Hammerheart Records (1996)
Version 1.1 - 10/07/06

Transcribed By: Lord Seth (Eugenio Lozano)
Email:          Iztlacoliuhqui@gmail.com


.  - palm mute           /  - slide up to
\  - slide down to       ~  - vibrato
h  - hammer on           b  - Bend
p  - pull off            Suffixes for bend
t  - tap                 f  - full bend    h - half bend
ph - pinched harmonic    q  - quarter bend t - tap bend
*  - see comment         ^  - Hold bend    r release bend
x  - Stuccatto           ~  - vibrato bend
,  - slight palm mute    () - ghost note, sustained note
"  - tremolo note        <> - Trill



Tuning E A D G B E




  Accompaniment

|------------------|
|------------------|
|------------------|
|------------------|
|-6-6-6-6--3-3-3-3-|
|------------------|x8



  1st. Figure

|----------------------------|
|----------------------------|
|----------------------------|
|-5----5-5----5-5------------|
|---6------6------6--5-3-5-3-|
|----------------------------|


  1st. Figure A

|------------------------------|
|------------------------------|
|------------------------------|
|-5-5----5-5----5-5------------|
|-----6------6------6--5-3-5-3-|
|------------------------------|


  2nd. Figure

|--------------------------|
|----------4-3--3-3--------|
|---3---------------5--3---|
|-5---5--5---------------5-|
|--------------------------|
|--------------------------|x2


  1st. Figure A x2


  2nd. Figure   x2


 Accompaniment B

|------------------------------------|
|------------------------------------|
|------------------------------------|
|------------------------------------|
|-6-6-6-6----------------------------|
|----------6-6-6-6--4-4-4-4--6-6-6-6-|x2



  3rd. Figure

|----------------------------------------------------|
|----------4-----------------------------------------|
|---3-------------3-----------1------1---------3-5-3-|
|-5---5--5---5--5---3--1--3--3---1--1---1--1-3-------|
|----------------------------------------------------|
|----------------------------------------------------|


  3rd. Figure B

|----------------------------------------------------|
|----------4-----------------------------------------|
|---3-------------3-----------1------1---------3-5-3-|
|-5---5--5---5--5---3-----3--3---1--1---1--1-3-------|
|----------------------4-----------------------------|
|----------------------------------------------------|

  Accompaniment x8


  1st Figure B

|------------------------------|
|------------------------------|
|------------------------------|
|-8-8----5-5----5-5------------|
|-----6------6------6--5-3-5-3-|
|------------------------------|

  1st. Figure A


  2nd. Figure   x2


  1st. Figure A x2


  2nd. Figure   x2


  Accompaniment B   x2


  3rd. Figure


  3rd. Figure C

|--------------------------------------------------6^-|
|----------4---------------------------------------6|-|
|---3-------------3-----------1------1---------3-5-7|-|
|-5---5--5---5--5---3----3--3---1--1---1--1-3------8|-|
|----------------------4------------------------------|
|-----------------------------------------------------|


END

  Visit MetalTabs.com for more metal tablature

bottom separator

Contact Us | Privacy Policy | Disclaimer | Legal Notice
Copyright © 2001-2014 MetalTabs.com. All Rights Reserved.