top separator

Home

Forum

What's New

Submit a Tab

FAQ

Links

Contact Us

Link to Us

MetalTabs.com logo

Bands

0-9

A

B

C

D

E

F

G

H

I

J

K

L

M

N

O

P

Q

R

S

T

U

V

W

X

Y

Z

Search

What

Where
 

Agathocles - "Go Fucking Nihilist" Guitar Tab

Plain Text Version
More Agathocles Tabs

Hits: 2179
Updated: 2006-09-06 23:30:22

 

By:

KalimboJoe

sendpm.gif

email.gif

Important note
This tab is available online because we obtained explicit permission from Agathocles or their label.


#----------------------------------PLEASE NOTE---------------------------------#
#This file is the author's own work and represents their interpretation of the #
#song. You may only use this file for private study, scholarship, or research. #
#Unless specified otherwise, this is NOT an official tab from the band members.#
#------------------------------------------------------------------------------#

  Visit MetalTabs.com for more metal tablature
  
Band:  Agathocles
Album: NO USE... (HATRED)
Song:  Go Fucking Nihilst

Copyright (c)  UXICON 1993


Transcribed By: KalimboJoe
Email:          leolink@gmx.de


.  - palm mute           /  - slide up to
\  - slide down to       ~  - vibrato
h  - hammer on           b  - Bend
p  - pull off            Suffixes for bend
t  - tap                 f  - full bend    h - half bend
ph - pinched harmonic    q  - quarter bend t - tap bend
*  - see comment         ^  - Hold bend    r release bend
x  - Stuccatto           ~  - vibrato bend
,  - slight palm mute    () - ghost note, sustained note
"  - tremolo note        <> - Trill

Tuning B E A D F# B

A
|-------------------------|--------------------------|
|-------------------------|--------------------------|
|-------------------------|--------------------------|
|-------------------------|--------------------------|
|-9--10----10-9--10----10-|-7--6-----6---7--6-----6--|
|-7--8-----8--7--8-----8--|-5--4-----4---5--4-----4--|


B                      x3
|------------------------|------------------------|
|------------------------|------------------------|
|------------------------|------------------------|
|-7--7-----7--7--7-----7-|-7--7-----7--7--7--7--7-|
|-5--5-----5--5--5-----5-|-5--5-----5--5--5--5--5-|
|------------------------|------------------------|


END
|---|
|---|
|---|
|---|
|-5-|
|-3-|

Ax1(left guitar)
Ax1(right guitar)
Ax6
Bx1
Ax6
Bx1
Ax1(left guitar)
Ax1(right guitar)
Ax6
Bx1
End

  Visit MetalTabs.com for more metal tablature

bottom separator

Contact Us | Privacy Policy | Disclaimer | Legal Notice
Copyright © 2001-2014 MetalTabs.com. All Rights Reserved.