top separator

Home

Forum

What's New

Submit a Tab

FAQ

Links

Contact Us

Link to Us

MuSpy.com

MetalTabs.com logo

Bands

0-9

A

B

C

D

E

F

G

H

I

J

K

L

M

N

O

P

Q

R

S

T

U

V

W

X

Y

Z

Search

What

Where
 

Butcher ABC - "Dozens Of Dismembered Torsos" Guitar Tab

Plain Text Version
More Butcher ABC Tabs

Hits: 2560
Rated: 4.00 out of 5 (1 vote)
Updated: 2007-04-02 05:54:26

 

By:

Cunty Shunt

sendpm.gif

email.gif

Important note
This tab is available online because we obtained explicit permission from Butcher ABC or their label.


#----------------------------------PLEASE NOTE---------------------------------#
#This file is the author's own work and represents their interpretation of the #
#song. You may only use this file for private study, scholarship, or research. #
#Unless specified otherwise, this is NOT an official tab from the band members.#
#------------------------------------------------------------------------------#

  Visit MetalTabs.com for more metal tablature
  
Band:  Butcher ABC
Album: Buchered At Birth Day
Song:  Dozen Of Dismembered Torsos

Copyright (c)  Obliteration Records 2003
Version 1.0 - 7-1-06

Transcribed By: Jim Haras
Email:          jimharas@yahoo.com


.  - palm mute           /  - slide up to
  - slide down to       ~  - vibrato
h  - hammer on           b  - Bend
p  - pull off            Suffixes for bend
t  - tap                 f  - full bend    h - half bend
ph - pinched harmonic    q  - quarter bend t - tap bend
*  - see comment         ^  - Hold bend    r release bend
x  - Stuccatto           ~  - vibrato bend
,  - slight palm mute    () - ghost note, sustained note
"  - tremolo note        <> - Trill

Tuning A A D G B E

Riff 1
|--------------------------------------------|
|--------------------------------------------|
|--------------------------------------------| x4
|--------------------------------------------|
|-12h0-12h0-12h0-12h0-12h0-12h0-12h0-11h0----|
|-12h0-12h0-12h0-12h0-12h0-12h0-12h0-11h0----|

Riff 2
|-----------------------|
|-----------------------|
|-----------------------| x2
|-----------------------|
|--0--1-0--1-0-1-3-1----|
|--0--1-0--1-0-1-3-1----|

Riff 3
|--------------------|
|--------------------| x2
|--------------------|
|--2------------5-3--|
|--0------------3-1--|
|--0------------3-1--|

Riff 1 (x4)

Riff 4
|-----------------------|
|-----------------------|
|-----------------------| x4
|-----------------------|
|--111-333-666-666------|
|--111-333-666-666------|

Riff 1 (x 4)
Riff 4 (x 4)
Riff 2 (x 2)

Riff 2 variation with tremelo (x 4)
END

  Visit MetalTabs.com for more metal tablature

bottom separator

Contact Us | Privacy Policy | Disclaimer | Legal Notice
Copyright © 2001-2014 MetalTabs.com. All Rights Reserved.