top separator

Home

Forum

What's New

Submit a Tab

FAQ

Links

Contact Us

Link to Us

MetalTabs.com logo

Bands

0-9

A

B

C

D

E

F

G

H

I

J

K

L

M

N

O

P

Q

R

S

T

U

V

W

X

Y

Z

Search

What

Where
 

Suffocation - "Synthetically Revived" Guitar Tab

Plain Text Version
More Suffocation Tabs

Hits: 3453
Rated: 4.33 out of 5 (6 votes)
Updated: 2006-09-03 00:52:54

 

By:

Sycophant

sendpm.gif

email.gif

Important note
This tab is available online because we obtained explicit permission from Suffocation or their label.


#----------------------------------PLEASE NOTE---------------------------------#
#This file is the author's own work and represents their interpretation of the #
#song. You may only use this file for private study, scholarship, or research. #
#Unless specified otherwise, this is NOT an official tab from the band members.#
#------------------------------------------------------------------------------#

  Visit MetalTabs.com for more metal tablature
  
Author/Artist: Suffocation
Title: Synthetically Revived
Album: Pierced from Within [1995 Roadrunner Records]
Transcribed by: Greg D. [Sycophant]
Email: sentience666@hotmail.com

Tune To C#.

------------|-----------------------------------------------------------------
------------|-----------------------------------------------------------------
------------|-----------------------------------------------------------------
------------|-----------------------------------------------------------------
-6--6--6--6-|-2--2--2--2-2-2-2-2-2-2--2--2--2-2-2-2-2-2-2--2--2--2-2-2-2-2-2--
-6--6--6--6-|-0--0--0--0-0-0-0-0-0-0--0--0--0-0-0-0-0-0-0--0--0--0-0-0-0-0-0--
 0:00 - 0:24

-------------------|-----------------------------------|----------------------
-------------------|-----------------------------------|----------------------
-------------------|--------------5--4--------------3--|----------------------
-------------------|-------7----4-------3--------2-----|----------------------
-2--6-\5--6--6--6--|----6-----3------------2--1--------|-2---2-2-2-2-2---2-2--
-0--4-\3--6--6--6--|-5---------------------------------|-0---0-0-0-0-0---0-0--
                     0:24 - 0:27                         0:42 - 0:53

------------------------------------------------------------------------------
------------------------------------------------------------------------------
------------------------------------------------------------------------------
------------------------------------------------------------------------------
-2-2-2---2-2-2-2-6-----5--2---2-2-2-2-2---2-2-2-2-6-6-6-6-6-6-7-6-6-6-6-6-----
-0-0-0---0-0-0-0----4-----0---0-0-0-0-0---0-0-0-0-6-6-6-6-6-6-7-6-6-6-6-6-----


-------------------------|----------------------------------------------------
-------------------------|----------------------------------------------------
-------------------------|----------------------------------------------------
-5-5-5-5-5-5-6-5-5-5-5-5-|------------4-----3------------------------------4--
-4-4-4-4-4-4-5-4-4-4-4-4-|-2--2-2-2-2----3-----2--2-2-2-2-3----3-2--2-2-2-----
-------------------------|-0--0-0-0-0----------0--0-0-0-0-1----1-0--0-0-0-----
 0:53 - 0:55               0:55 - 1:19

------|--------------------|-------------------|------------------------------
------|--------------------|-------------------|------------------------------
------|------2--1b2r1------|-------------------|------------------------------
----3-|---3-----------2----|-------4--5--4--3--|----------4-----3-------------
-3----|4----------------3--|-4--5--2--3--2--1--|-2--2--2-----3-----2--2-2-2-2-
------|--------------------|-2--3--------------|-0--0--0-----------0--0-0-0-0-
                       end1                end2

----------------------|-----------------------|-------------------------------
----------------------|-----------------------|-------------------------------
----------------------|-------5--4*5*4--------|-------2--1*2*1----------------
----------------------|----6------------5-----|----3------------2-------------
-3--2-2-3--2--2-2-2-2-|-7------------------6--|-4------------------3----------
-1--0-0-1--0--0-0-0-0-|-----------------------|-------------------------------
                        Left Speaker 1:11       Right Speaker 1:11

--------------------------------------------------|---------------------------
--------------------------------------------------|---------------------------
--------------------------------------------------|---------------------------
---------------------------------4--5--4----------|---------------------------
---------------------------------2--3--2--6--5--4-|1-1-1-1-1-1-1-1-1-1-1-1-1--
-4-4-4-4-4-4-4-4-4-4-4-4-4-4-4-4----------4--3--2-|---------------------------
 1:19 - 1:36

-------------------------------------|----------------------------------------
-------------------------------------|----------------------------------------
-------------------------------------|----------------------------------------
-------------------------3--4--5--6--|----------------------------------------
-1-1-0-0-1-1-0-0-2-2-0-0-1--2--3--4--|1-1-1-1-1-1-1-1-1-1-1-1-1-1-1-1---------
-------------------------------------|--------------------------------0--2----
                               end1

------------------|-----------------------------------------------------------
------------------|-----------------------------------------------------------
------------------|-----------------------------------------------------------
------------------|------------------------------------------------3--4--5--6-
-4--5--------3--4-|2-2-2-2-1-1-1-1-1-1-1-1-1-1-1-1-0-1-1-1-1-1-1-1-1--2--3--4-
-------0--2-------|-----------------------------------------------------------
            end2                                                     end3

------------------------------------------------------------------------------
------------------------------------------------------------------------------
------------------------------------------------------------------------------
-----------------------------4--5--4------------------------------------------
-4--4-4-4--4--4--4-4-4-4-4-4-2--3--2--6--5--4--2-2-2-2-1-1-1-1-1-1-1-1-1-1-1--
-2--2-2-2--2--2--2-2-2-2-2-2----------4--3--2---------------------------------
 1:36 - 1:42                                   this would be end 4 >>>>>>>>>>

---------------------------|--------------------------------------------------
---------------------------|--------------------------------------------------
---------------------------|--------------------------------------------------
---------------------------|---------------------------------------------4--5-
-1-------3--4--------3--4--|---------------------------------5--6-------------
---0--2--------0--2--------|-2-2-2-2-2-2-2-2-2-2-2-2-2-2-2-2-------6--6-------
 >>>>>>>>>>>>>>>>>>>>>>>>    1:42 - 2:00

------------------------------------------------------------------------------
------------------------------------------------------------------------------
-3--4-------------------------------------------------------------------------
------------------------------------------------------------------------------
------------------------------------------------------------------------------
-------2-2-2-2-2-2-2-2-1-1-1-1-1-1-1-1-4-4-4-4-4-4-4-4-3-3-3-3-3-3-3-3-2-2-2--


------------------------------------------------------------------------------
------------------------------------------------------------------------------
------------------------------------------------------------------------------
------------------------------------------------------------------------------
---------------------------6--7--------4--4--3--4------------------5-5-5-5-4--
-2-2-2-2-2-2-2-2-2-2-2-2-2-------5--6--------------2-2-2-2-2-2-2-2------------


--------------------------------|---------------------------------------------
--------------------------------|---------------------------------------------
--------------------------------|---------------------------------------------
--------------------------------|---------5*6*5---------5*6--4*5*4-4*5*4------
-4-4-4-----------------------4--|-4-5-4-5-------4-5-4-5-----------------------
-------5-5-5-5-5-5-5-5-0--2-----|-2-3-2-3-------2-3-2-3-----------------------
                              x2  2:00 - 2:17

------------------------------------------------------------------------------
------------------------------------------------------------------------------
------------------------------------------------------------------------------
---------5*6*5---------5*6--4*5*4-4*5*4-3*4*3-----3*4*3---------3*4*3-2*3*2---
-4-5-4-5-------4-5-4-5------------------------3-4-------3-4-3-4---------------
-2-3-2-3-------2-3-2-3------------------------1-2-------1-2-1-2---------------


-----------------------------------------------|------------------------------
-----------------------------------------------|------------------------------
-----------------------------------------------|-3*4------3*4-2*3*2-2*3*2-----
-2*3*2---------3*4*3---------3*4*3-2*3*2-2*3*2-|------------------------------
-------3-4-3-4-------3-4-3-4-------------------|------------------------------
-------1-2-1-2-------1-2-1-2-------------------|------------------------------
                                             x2  harmony on rep2

------------------------------------------------------------------------------
------------------------------------------------------------------------------
--3*4------3*4-2*3*2-2*3*2-1*2--1*2-----1*2-0*1*0-0*1*0------1*2-----1*2------
------------------------------------------------------------------------------
------------------------------------------------------------------------------
------------------------------------------------------------------------------


-------------|----------------------------------------------------------------
-------------|----------------------------------------------------------------
-0*1*0-0*1*0-|----------------------------------------------------------------
-------------|----------------------------------------------------------------
-------------|------------------------------------------2---------------------
-------------|-3-3-3-3-0-0-0-0-2-2-2-2-2-2-0-2-2--6--4-----2--6--0--4--2-2-2--
               2:17 - 2:33

------------------------------------------------------------------------------
------------------------------------------------------------------------------
------------------------------------------------------------------------------
------------------------------------------------------------------------------
--------------------------2--------3-----4------------------------------------
-2-0-0-0-0-1--1--1--0--1-----1--1-----2-----3--3-3-3-3-0-0-0-0-2-2-2-2-2-2-2--


---------------------------------------------------------------------------|--
---------------------------------------------------------------------------|--
---------------------------------------------------------------------------|--
------------------------------------------------------------------2--5--4--|--
------------2--------------------------------------------2--4--5-----------|--
-0-2--6--4-----2--6--0--4--2-2-2-2-0-0-0-0-1-1-1-1-4--5--------------------|--


-------------------------------------------------------|----------------------
-------------------------------------------------------|----------------------
----------------------------------------4-----5--------|----------------------
----------------------------------4--3-----3-----4--3--|----------------------
-------------------------0--2--5-----------------------|----------------------
-1-1-1-1-0-0-0-0-1-1-1-1-------------------------------|-0-0-0-0-2-2-2-2-5-5--
 2:33 - 2:35                                             2:35 - 2:52

------------------------------------------------------------------------------
------------------------------------------------------------------------------
------------------------------------------------------------------------------
------------------------------------------------------------------------------
-------------4-5-4-3-4-5-4-3---------0-0-0-0-5-5-5-5-4-4-4-4-5-7-6-4-6-5-3----
-5-5-4-4-4-4-2-3-2-1-2-3-2-1-2-2-2-2---------------------------5-4---4-3---3--


--------------------------------|----------------------------|----------------
--------------------------------|----------------------------|----------------
--------------------------------|----------------------------|----------------
-7-----6-----5---5-----4-----3--|--------------7-------6-----|-5--------------
-5-7-6-4-6-5-3-5-3-5-4-2-4-3-1-3|2------3------5-------4-----|-3--------3--2--
---5-4---4-3---3---3-2---2-1---1|0------1------5-------4-----|-3-0-0-0--------
 2:52 - 2:58                                                   2:58 - 3:14

------------------------------------------------------------------------------
------------------------------------------------------------------------------
------------------------------------------------------------------------------
----------3--2--0----------------3--2--0-------3-3-2-2-0-0--------------------
-0-5-2-2-----------4--4--5----------------5-2--------------4--4--3-2-2-2------
---3-0-0-----------2--2--3-0-0-0----------3-0--------------2--2--1-0-0-0--5---


------------------------------------------------------------------------------
------------------------------------------------------------------------------
------------------------------------------------------------------------------
------------------------------------------------------------------------------
-------3-2-2-2-----------2--2--3-2-2-2-----------3-2-2-2-----------2--2--7----
-3--0--1-0-0-0--5--3--0--0--0--1-0-0-0--5--3--0--1-0-0-0--5--3--0--0--0--5-0--


------------------------------------------------------------------------------
------------------------------------------------------------------------------
------------------------------------------------------------------------------
------------------------------------------------------------------------------
------5--4-----7--------5--4-----6--6--7--------5--4-----7--------5--4-----6--
-0-0--------7--5-0-0-0--------7--4--4--5-0-0-0--------7--5-0-0-0--------7--4--


------------------------------------------------------------------------------
------------------------------------------------------------------------------
------------------------------------------------------------------------------
-------------3--2--0-----------3--2--0-----------------3--2--0-----------3----
-6--5-2-2-2-----------5-2-2-2-----------4--4--5-2-2-2-----------5-2-2-2-------
-4--3-0-0-0-----------3-0-0-0-----------2--2--3-0-0-0-----------3-0-0-0-------


-------------|----------------------------------------------------------------
-------------|----------------------------------------------------------------
-------------|----------------------------------------------------------------
-2--0--------|----------------------------------------------------------------
-------4--4--|-5-5-5-5---------------------------------0-0-0-0-5-5-5-5-4-4-4--
-------2--2--|---------3-3-3-3-6-6-6-6-5-5-5-5-2-2-2-2------------------------
               3:14 - 3:32

------------------------------------------------------------------------------
------------------------------------------------------------------------------
------------------------------------------------------------------------------
------------------------------------------------------------------------------
-4-5-5-5-5--------------------------------------------------------------------
-----------3-3-3-3-6-6-6-6-5-5-5-5-2-2-2-2-5-5-5-5-1-1-1-1-4-4-4-4------------
                                                                   x4

------------------------------------------------------------------------------
------------------------------------------------------------------------------
-7-7-7-7-----------------------------------------7-7-7-7-6-6-6-6-7-7-7-7------
---------5-5-5-5-8-8-8-8-7-7-7-7-4-4-4-4-7-7-7-7-------------------------5-5--
------------------------------------------------------------------------------
------------------------------------------------------------------------------
 3:23 - 3:32 Guitar II Octave Harmony

--------------------------------------------------------|---------------------
--------------------------------------------------------|---------------------
--------------------------------------------------------|---------------------
-5-5-8-8-8-8-7-7-7-7-4-4-4-4-7-7-7-7-3-3-3-3-6-6-6-6----|---------------------
--------------------------------------------------------|-----8-------7-------
--------------------------------------------------------|-666---7-666---6-5---
                                                     x2   3:32 - 3:50

-----------------------------------------------|------------------------------
-----------------------------------------------|------------------------------
-----------------------------------------------|------------------------------
-----------------------------------7-6---------|-7\---------------------------
-------------------6-------5---------------6---|-7\---------------------------
-666-5-6-5-6-7-444---5-444---4-444-----444---5-|-5\---------------------------
                                            x4   3:50

  Visit MetalTabs.com for more metal tablature

bottom separator

Contact Us | Privacy Policy | Disclaimer | Legal Notice
Copyright © 2001-2014 MetalTabs.com. All Rights Reserved.